Song name
# A B C D E F G H I J K L M N O P Q R S T U V W X Y Z

Misc Unsigned Bands - Sindrome - No Name tab

This is a local metal band I saw live... and this song deserved reconition... I never 
the title of the song... but it was amazing, so I thought I would let some of yall play it 
since they have no CD out yet.

It's in regular tuning

h - hammer
p - pulloff
* - pinch harmonic
' - palm mute
^ - pull

Intro (played Extremely fast)Guitar 1 & 2
e----------------------------------------|
b----------------------------------------|
g----------------------------------------|
d-----------------------------------^----|
a--5858585858584747474747473^3^3^3^3^----|
E----------------------------------------| x3


Guitar 1
e--------------------------------------------------------------|
b--------------------------------------------------------------|
g--------------------------------------------------------------|
d--------------------------------------------------------------|
a-------5h8p5h8p5h8------5h8p5h8p5h8-----4h7p4h7p4h7-----3*----|
E---0-0--------------0-0-------------0-0-------------0-0-------|x4
    ' '              ' '             ' '             ' '

Guitar 2 (power chords in the background)
e-----------------------------------|
b-----------------------------------|
g-----------------------------------|
d-----------------------------------|
a---4--54--7--5--4---4-54--7--5--2--|
E---2--32--5--3--2---2-32--5--3--0--|x4

I wish I had the lyrics... but I couldnt remember everything... If I see them again I 
add on the rest of the song...
Tap to rate this tab
# A B C D E F G H I J K L M N O P Q R S T U V W X Y Z