Song name
# A B C D E F G H I J K L M N O P Q R S T U V W X Y Z

Misc Unsigned Bands - Blacklite - Ummmm tab

Verse

e|----------------------------------------------------------|
b|------------------------7-6-5-----------------------------|
g|----------------------6-------7-5-------------------------|
d|----------------------------------7-5-7-777777777777777---|
a|--9-999999999999999-------------------5-555555555555555---|
E|--7-777777777777777---------------------------------------|
      ...............           . . . .   ...............

Chorus

e|----------------------------------------------------------|
b|----------------------------------------------------------|
g|----------------------------------------3~~-5~~-----------|
d|-----------------7-77777777777--5-3-2---------------------|
a|--5-55555555555--5-55555555555--3-1-0---------------------|
E|--3-33333333333-------------------------------------------|
      ...........    ...........
Tap to rate this tab
 
# A B C D E F G H I J K L M N O P Q R S T U V W X Y Z