Song name
# A B C D E F G H I J K L M N O P Q R S T U V W X Y Z

Misc Unsigned Bands - Toxic Narcotic - Homebrew tab

-------------------------------------------------------------------------------
			     Homebrew - Toxic Narcotic
-------------------------------------------------------------------------------
Tabbed by: Omar Garcia
Email: ravage.cramoisi@gmail.com

Tuning: Standar

* = Ring
XsY = Slide X note to Y note

Listen to the song to get the rhythm

Intro
        x3
e|---------------|---------|
B|---------------|---------|
G|-7--6----------|---------|
D|-7--6--7--5--7-|-7-6-7-5-|
A|-5--4--7--5--7-|-7-6-7-5-|
E|-------5--3--5-|-5-4-5-3-|

Verse
e|-------------------|
B|-------------------|
G|-77777777----------|
D|-77777777--7-6-7-5-| x4
A|-55555555--7-6-7-5-|
E|-----------5-4-5-3-|

Corporate beer that tastes like sh*t (I want homebrew!)
profit as they sell you piss (I want homebrew!)
doesn't cost that much at all (I want homebrew!)
to sit at home and brew your own (I want homebrew!)

Chorus
           x3
e|---------------------|--------------------|----|---------|
B|---------------------|--------------------|----|---------|
G|-7777-6666-----------|-7777-6666----------|-7*-|---------|
D|-7777-6666-7777-5555-|-7777-6666--7-6-7-5-|-7*-|-7-6-7-5-|
A|-5555-4444-7777-5555-|-5555-4444--7-6-7-5-|-5*-|-7-6-7-5-|
E|-----------5555-3333-|------------5-4-5-3-|----|-5-4-5-3-|

Buying corporate beer is like buying corperate rock
production for consumption that will never stop
we brew it thick and rich because we're thin and poor
support the independant when we buy it at a store
I want hombrew!

Verse
e|-------------------|
B|-------------------|
G|-77777777----------|
D|-77777777--7-6-7-5-| x4
A|-55555555--7-6-7-5-|
E|-----------5-4-5-3-|

Cider lager stout and ale (I want hombrew!)
have a pint it's not for sale (I want hombrew!)
pride in what you made from scratch (I want hombrew!)
sucking back a fresh brewed batch (I want hombrew!)

Chorus
           x3
e|---------------------|--------------------|----|-----------|-----|
B|---------------------|--------------------|----|-----------|-----|
G|-7777-6666-----------|-7777-6666----------|-7*-|---7-----7-|-----|
D|-7777-6666-7777-5555-|-7777-6666--7-6-7-5-|-7*-|--7--7--7--|-7-6-|
A|-5555-4444-7777-5555-|-5555-4444--7-6-7-5-|-5*-|-5-----5---|-7-6-|
E|-----------5555-3333-|------------5-4-5-3-|----|-----------|-5-4-|

Buying corporate beer is like buying corporate rock
production for consumption that will never stop
we brew it thick and rich, because we're thin and poor
support the independant when we buy it at a store

Bridge
e|------------------|
B|------------------|
G|-6s7-6s7----------|
D|-6s7-6s7--7-6-7-5-| x4
A|-4s5-4s5--7-6-7-5-|
E|----------5-4-5-3-|

Homebrew music
homebrew beer
D.I.Y. for life the situation's clear
to everybody down I raise my glass and cheer
and have another drink of that homebrewed beer

        x3
e|---------------|--------------|----|---------|
B|---------------|--------------|----|---------|
G|-7--6----------|-7-6----------|-7*-|---------|
D|-7--6--7--5--7-|-7-6--7-6-7-5-|-7*-|-7-6-7-5-|
A|-5--4--7--5--7-|-5-4--7-6-7-5-|-5*-|-7-6-7-5-|
E|-------5--3--5-|------5-4-5-3-|----|-5-4-5-3-|

I want homebrew!
I want homebrew!
I want homebrew!
I want homebrew!

e|------------------|
B|------------------|
G|-6s7-6s7----------|
D|-6s7-6s7--7-6-7-5-| x4
A|-4s5-4s5--7-6-7-5-|
E|----------5-4-5-3-|

Homebrew music
homebrew beer
D.I.Y. for life the situation's clear
to everybody down I raise my glass and cheer
and have another drink of that homebrewed beer
===============================================================================
Tap to rate this tab
# A B C D E F G H I J K L M N O P Q R S T U V W X Y Z