Song name
# A B C D E F G H I J K L M N O P Q R S T U V W X Y Z

Misc Unsigned Bands - Phyton - Calling Out tab

Play x4
e|-------------------------------------------------------------------------|
b|-------------------------------------------------------------------------|
g|-------------------------------------------------------------------------|
d|-------------------------------------------------------------------------|
a|-------------------------------------------------------------------------|
E|0-0-3-0-0-5-0-0-6-0-0-5-0-0-3--------------------------------------------|

Play x4
e|-------------------------------------------------------------------------|
b|-------------------------------------------------------------------------|
g|----3-----5-----9-----7-----5--Play---Then---0---------------------------|
d|----3-----5-----9-----7-----5--This---Play---0---------------------------|
a|0-0-1-0-0-3-0-0-7-0-0-5-0-0-3--4x-----This---0---------------------------|
E|-------------------------------------------------------------------------|

e|-------------------------------------------------------------------------|
b|-------------------------------------------------------------------------|
g|-------------------------------------------------------------------------|
d|-------------------------------------------------------------------------|
a|-------------------------------------------------------------------------|
E|-0-0-3-0----0-0-5-0-----0-0-6-0----0-0-5-0-------------------------------|

e|-------------------------------------------------------------------------|
b|-------------------------------------------------------------------------|
g|-------------------------------------------------------------------------|
d|-------------------------------------------------------------------------|
a|-------------------------------------------------------------------------|
E|-0-0-3-0-0-5-0-0-6-0-0-5-0-0-3--0-0-3-0-0-5-0-0-6-0-0-5-0-0-3------------|

e|-------------------------------------------------------------------------|
b|-------------------------------------------------------------------------|
g|-------------------------------------------------------------------------|
d|-------------------------------------------------------------------------|
a|-------------------------------------------------------------------------|
E|-0-0-3-0-0-5-0-0-6-0-0-5-0-0-3b-r-3b-r-----------------------------------|

e|-------------------------------------------------------------------------|
b|-------------------------------------------------------------------------|
g|-----------------------------3b------------------------------------------|
d|-----------------------------3b------------------------------------------|
a|-------------------------------------------------------------------------|
E|-0-0-3-0-0-5-0-0-6-0-0-5-0-0---------------------------------------------|

e|0-0-1h3p0-0-0-3h5p0-0-0-5h7p0-0-0-7h9p0-0-0-9h11p0-9h11p0-9h11p0-9h11p0--|
b|-------------------------------------------------------------------------|
g|-------------------------------------------------------------------------|
d|-------------------------------------------------------------------------|
a|-------------------------------------------------------------------------|
E|-------------------------------------------------------------------------|

e|-11h14p11h14p11h14p11h14p11h14p11h14p11h14p11h14-------------------------|
b|-------------------------------------------------------------------------|
g|-------------------------------------------------------------------------|
d|-------------------------------------------------------------------------|
a|-------------------------------------------------------------------------|
E|-------------------------------------------------------------------------|

e|-t15p11h14-x8-t16p11h14-x8-t17p11h14-x8-t16p11h14-x8---------------------|
b|-------------------------------------------------------------------------|
g|-------------------------------------------------------------------------|
d|-------------------------------------------------------------------------|
a|-------------------------------------------------------------------------|
E|-------------------------------------------------------------------------|

e|-t15p11h14-t16p11h14-t15p11h14-t16p11h14-t15p11h14-t16p11h14-t15p11h14---|
b|-------------------------------------------------------------------------|
g|-------------------------------------------------------------------------|
d|-------------------------------------------------------------------------|
a|-------------------------------------------------------------------------|
E|-------------------------------------------------------------------------|


e|-14-0--------------------------------------------------------------------|
b|----0--------------------------------------------------------------------|
g|-------------------------------------------------------------------------|
d|-------------------------------------------------------------------------|
a|-------------------------------------------------------------------------|
E|-------------------------------------------------------------------------|

e|-------------------------------------------------------------------------|
b|-------------------------------------------------------------------------|
g|---------------------3-x-3-x-3-2-x-2-x-2---------------------------------|
d|-2-x-2-x-2-3-x-3-x-3-3-x-3-x-3-2-x-2-x-2---------------------------------|
a|-2-x-2-x-2-3-x-3-x-3-----------------------------------------------------|
E|-------------------------------------------------------------------------|

e|-------------------------------------------------------------------------|
b|-------------------------------------------------------------------------|
g|---------------------3-x-3-x-3-2-2-2-------------------------------------|
d|-2-x-2-x-2-3-x-3-x-3-3-x-3-x-3-2-2-2-------------------------------------|
a|-2-x-2-x-2-3-x-3-x-3-----------------------------------------------------|
E|-------------------------------------------------------------------------|

e|-------------------------------------------------------------------------|
b|-------------------------------------------------------------------------|
g|-------------------------------------------------------------------------|
d|-------------------------------------------------------------------------|
a|-------------------------------------------------------------------------|
E|-0-0-3-0-0-5-0-0-6-0-0-5-0-0-3-x4----------------------------------------|

e|-------------------------------------------------------------------------|
b|-------------------------------------------------------------------------|
g|-------------------------------------------------------------------------|
d|-------------------------------------------------------------------------|
a|-------------------------------------------------------------------------|
E|-0-0-3-0-0-5-0-0-6-0-0-8-0-0-9-0-0-10-0-0-11-0-0-12-0-0------------------|

e|-------------------------------------------------------------------------|
b|-------------------------------------------------------------------------|
g|-------------------------------------------------------------------------|
d|----------------------------9-0-0-10-0-0-11-0-0-12-0-0-------------------|
a|-12-0-0-11-0-0-10-0-0-9-0-0----------------------------------------------|
E|-------------------------------------------------------------------------|

e|-------------------------------------------------------------------------|
b|----------------------------9-0-0-10-0-0-11-0-0-12-0-0-------------------|
g|-12-0-0-11-0-0-10-0-0-9-0-0----------------------------------------------|
d|-------------------------------------------------------------------------|
a|-------------------------------------------------------------------------|
E|-------------------------------------------------------------------------|

e|-12-0-0-11-0-0-10-0-0-9-0-0----------------------------------------------|
b|-------------------------------------------------------------------------|
g|-------------------------------------------------------------------------|
d|-------------------------------------------------------------------------|
a|-------------------------------------------------------------------------|
E|-------------------------------------------------------------------------|

e|-------------------------------------------------------------------------|
b|----------------------------------------0--------------------------------|
g|---------------------------------------0---------------------------------|
d|-7-7-7-7-9-9-9-9-9-7-5-3-2----2-------0----------------------------------|
a|-7-7-7-7-9-9-9-9-9-7-5-3-2----2-3-2--0----2------------------------------|
E|-5-5-5-5-7-7-7-7----------------3-2-0-----2------------------------------|
Tap to rate this tab
 
# A B C D E F G H I J K L M N O P Q R S T U V W X Y Z