Song name
# A B C D E F G H I J K L M N O P Q R S T U V W X Y Z

Misc Unsigned Bands - Mysteria - Mysteria tab

Zach Wells/Lead Guitar
Alex Broaddus/Bassist

Mysteria/Mysteria

This our own song we made. I hope you like. You will not here this song on the radio or 
the internet. Were just a Garage band. Hope you like this song.

  Intro                                              x4
e|121212121212101010101010141414141414111111111111-----|Pick with fingers
B|101010101010101010101010101010101010101010101010-----|
G|-----------------------------------------------------|Or speed pick wich
D|-----------------------------------------------------|ever suits you
A|-----------------------------------------------------|
E|-----------------------------------------------------|


  Main Riff
e|------------------------------------------|Slide up but pluck all power
B|------------------------------------------|chords
G|------------------------------------------|
D|-7--7-7/9--7--7-7/9--7--7-7/9--7--7-7/9---|
A|-5--5-5/7--5--5-5/7--5--5-5/9--5--5-5/7---|
E|------------------------------------------|

 Main Riff (Continued)
e|------------------------------------------|
B|------------------------------------------|
G|------------------------------------------|
D|-5--5-5/7--5--5-5/7--7--7-7/9--7--7-7/9---|
A|-3--3-3/5--3--3-3/5--5--5-5/7--5--5-5/7---|
E|------------------------------------------|

  Verse A                     x2
e|------------------------------|
B|------------------------------|
G|------------------------------|
D|----------7--7-7/9--7--7-7/9--|
A|----------5--5-5/7--5--5-5/7--|
E|00000000----------------------|
  xxxxxxxx

  Verse B
e|------------------------------|
B|------------------------------|
G|------------------------------|
D|----------5--5-5/7--5--5-5/7--|
A|----------3--3-3/5--3--3-3/9--|
E|00000000----------------------|
  xxxxxxxx
   Verse C
e--------------------------------|
B--------------------------------|
G--------------------------------|
D----------7--7-7/9--7--7-7/9----|
A----------5--5-5/7--5--5-5/7----|
E|00000000-----------------------|
  xxxxxxxx

  Chorus           x3                 Guitar 2 x3
e|---------------------- ---------------------------|
B|---------------------- ---------------------------|
G|---------------------- -----------12------12------|
D|--5-7------9------9--- --5-7------12------12------|
A|--3-5------7------7--- --3-5----------------------|
E|------0000---0000----- ------0000----0000---------|

Solo Wont be Tabed yet!!

After Solo

Main Riff
e|------------------------------------------|
B|------------------------------------------|
G|------------------------------------------|
D|-7--7-7/9--7--7-7/9--7--7-7/9--7--7-7/9---|
A|-5--5-5/7--5--5-5/7--5--5-5/9--5--5-5/7---|
E|------------------------------------------|

Main Riff (Continued)
e|------------------------------------------|
B|------------------------------------------|
G|------------------------------------------|
D|-5--5-5/7--5--5-5/7--7--7-7/9--7--7-7/9---|
A|-3--3-3/5--3--3-3/5--5--5-5/7--5--5-5/7---|
E|------------------------------------------|

  Verse A                     x2
e|------------------------------|
B|------------------------------|
G|------------------------------|
D|----------7--7-7/9--7--7-7/9--|
A|----------5--5-5/7--5--5-5/7--|
E|00000000----------------------|
  xxxxxxxx


 Verse B
e|------------------------------|
B|------------------------------|
G|------------------------------|
D|----------5--5-5/7--5--5-5/7--|
A|----------3--3-3/5--3--3-3/9--|
E|00000000----------------------|
  xxxxxxxx

  Verse C
e--------------------------------|
B--------------------------------|
G--------------------------------|
D----------7--7-7/9--7--7-7/9----|
A----------5--5-5/7--5--5-5/7----|
E|00000000-----------------------|
  xxxxxxxx

  Outro
e|121212121212101010101010141414141414111111111111-----|
B|101010101010101010101010101010101010101010101010-----|
G|-----------------------------------------------------|
D|-----------------------------------------------------|
A|-----------------------------------------------------|
E|-----------------------------------------------------|

Hope you enjoy it. Please rate!!!
Tap to rate this tab
# A B C D E F G H I J K L M N O P Q R S T U V W X Y Z