Song name
# A B C D E F G H I J K L M N O P Q R S T U V W X Y Z

Misc Unsigned Bands - The Dogs Bollocks - 8607 tab

Help us improve GuitareTab! Take a short survey!
 (1)|----------------|(2)|-----------------|        ORDER:(1)(2)(2)(2)(3)(2)(2) 
    |----------------|   |-----------------|              (2)(3)(4)(3)(4)(3)(4)       
    |----------------|   |-----------------|              (3)(4)(3)(4)(5)(5)(6)
    |x--x--x--x--x---|   |x-x-x-x-x-x-x-1--|              (6)(5)
    |x--x--x--x--x---|   |x-x-x-x-x-x-x-1--|
    |x--x--x--x--x---|   |x-x-x-x-x-x-x-1--|

 (3)|-------------------| (4)|------------------------|
    |-------------------|    |------------------------|
    |-------------------|    |------------------------|
    |-x-x-x-x-1-2-3-2-1-|    |1-x-x-1-x-x-1-x-x-1-x-x-|
    |-x-x-x-x-1-2-3-2-1-|    |1-x-x-1-x-x-1-x-x-1-x-x-|
    |-x-x-x-x-1-2-3-2-1-|    |1-x-x-1-x-x-1-x-x-1-x-x-|

 (5)|--------------|  (6) |----------------------------|
    |--------------|      |----------------------------|
    |9---7---------|      |---9------7-----------------|
    |9---7---7---9-|      |-----9------7----7------9---|
    |7---5---7---9-|      |-7------5----------7------9-|
    |--------5---7-|      |---------------5------7-----|
Related for The Dogs Bollocks - 8607 tab