Song name
# A B C D E F G H I J K L M N O P Q R S T U V W X Y Z

Misc Unsigned Bands - Mysteria - Crackhead Squirrel tab

Mysteria Crackhead Squirrel
Zach Wells
Alex Broaddus


  Intro             x4
e|--------------------|Hold the first 9 for about a secound
B|--------------------|
G|--------------------|
D|--------------------|
A|--------------------|
E|-9-9-7-5-7----------|

  Verse        x2
e|---------------|
B|---------------|
G|---------------|
D|---------------|
A|1111-9-7-9-----|
E|-9-9-7-5-7-----|

  Chorus
e|------------------|
B|------------------|
G|------------------|
D|------------------|
A|11--11-9----------|
E|-9--9--7----------|

  Verse        x2
e|---------------|
B|---------------|
G|---------------|
D|---------------|
A|1111-9-7-9-----|
E|-9-9-7-5-7-----|

  Chorus
e|------------------|
B|------------------|
G|------------------|
D|------------------|
A|11--11-9----------|
E|-9--9--7----------|

 Verse 2
e|---------------------|
B|---------------------|
G|---------------------|
D|---------------------|
A|-11-11--9-11--9------|
E|--9--9--7--9--7------|

 Verse
e|---------------|
B|---------------|
G|---------------|
D|---------------|
A|1111-9-7-9-----|
E|-9-9-7-5-7-----|

 Chorus
e|------------------|
B|------------------|
G|------------------|
D|------------------|
A|11--11-9----------|
E|-9--9--7----------|
  Verse 3
e|------------------------------|
B|------------------------------|
G|-------------------7----------|
D|----------7--7--5--5--5--5----|
A|-7--7--5--5--5--3-----3--3----|
E|-5--5--3----------------------|

Chorus
e|------------------|
B|------------------|
G|------------------|
D|------------------|
A|11--11-9----------|
E|-9--9--7----------|


e|------------------|
B|------------------|
G|------------------|
D|------------------|
A|11--11-9----------|
E|-9--9--7----------|


e|------------------|
B|------------------|
G|------------------|
D|------------------|
A|-9--9--11---------|
E|-7--7--9----------|


e|------------------|
B|------------------|
G|------------------|
D|------------------|
A|11--11-11---------|
E|-9--9--9----------|


e|------------------|
B|------------------|
G|------------------|
D|------------------|
A|-9--11------------|
E|-7--9-------------|
Chorus
e|------------------|
B|------------------|
G|------------------|
D|------------------|
A|11--11-9----------|
E|-9--9--7----------|


e|------------------|
B|------------------|
G|------------------|
D|3-3-5-7-----------|
A|1-1-3-5-----------|
E|------------------|

Chorus
e|------------------|
B|------------------|
G|------------------|
D|------------------|
A|11--11-9----------|
E|-9--9--7----------|

This song is preety simple. I made it when i just started to play guitar. I got the idea 
Elephant Bones when he says Crackhead Squirrel!
Tap to rate this tab
# A B C D E F G H I J K L M N O P Q R S T U V W X Y Z