Song name
# A B C D E F G H I J K L M N O P Q R S T U V W X Y Z

Misc Unsigned Bands - Dumbledores Army - She Ditched My Best Friend tab

This is my band, my song. Hope it becomes a big hit.  Dumbledore's Army
                                                 She Ditched my best friend
                                                     No Album
 song goes:

Intro
chorus
Verse 1
chorus
Verse 2
outro.


  Intro

E--------------------------------------------------|---------------------|
B--------------------------------------------------|---------------------|
G----------11-11-11---11-11-11---11--11---9--------|------------11-11-11-|
D----------11-11-11---11-11-11---11--11---9--------|------------11-11-11-|
A----------9--9--9-----9--9--9----9---9---7--------|-------------9--9--9-|
D---0-0-------------0-------------9---9---7--------|------0-0------------|

E-----------------------|
B-----------------------|
D----11-11-11----7---9--|
G----11-11-11----7---9--|
A-----9--9--9----5---7--|
D--0-------------5---7--|

  Chorus
E--------------------------------------------------------------------------|
B--------------------------------------------------------------------------|
G--11-11-11---7--5-------11-11-11---7---9-------11-11-11---7--5---7--11--11|
D--11-11-11---7--5-------11-11-11---7---9-------11-11-11---7--5---7--11--11|
A---9--9--9---5--3--------9--9--9---5---7--------9--9--9---5--3---5---9---9|
D-----------------------------------5---7----------------------------------|


E--------------------------------------------------------------------------|
B--------------------------------------------------------------------------|
G--11-11-11---7--5-------11-11-11---7---9-------11-11-11---7--5---11-11-11-|
D--11-11-11---7--5-------11-11-11---7---9-------11-11-11---7--5---11-11-11-|
A---9--9--9---5--3--------9--9--9---5---7--------9--9--9---5--3----9--9--9-|
D-----------------------------------5---7----------------------------------|


  Verse 1
E--------------------------------------------|
B--------------------------------------------|
G---2--2--4--2~~~-2--2--4--2~~~-2~~~-2~~~----|
D--------------------------------------------|
A--------------------------------------------|
D--------------------------------------------|


  Verse 2
E-------------------------------|
B-------------------------------|
G-----11---11~~~~-----11~~~~----|
D--------9---------7------------|
A-------------------------------|
E-------------------------------|

  0utro
E-----------------------------------------------------------------------|
B-----------------------------------------------------------------------|
G---11-11-11---7--5--(x5)-----11-11-11----------------------------------|
D---11-11-11---7--5--(x5)-----11-11-11----------------------------------|
A----9--9--9---5--3--(x5)------9--9--9----------------------------------|
D-----------------------------------------------------------------------|


  Lyrics

There was a time, there was a time, time, time.
That you and me we were the best of friends.
And then...

She ditched my best friend
She's getting payback
She ditched my best friend and it's all your fault!

She ditched my best friend
She's getting payback
She ditched my best friend cause of you!

There was a time, there was a time, time, time

She ditched my best friend
She's getting payback
She ditched my best friend and it's all your fault!

She ditched my best friend
She's getting payback
She ditched my best friend cause of you!

We were friends, and then...

She ditched my best friend
She ditched my best friend
She ditched my best friend
She ditched my best friend
She ditched my best friend cause of you!
Tap to rate this tab
# A B C D E F G H I J K L M N O P Q R S T U V W X Y Z