Song name
# A B C D E F G H I J K L M N O P Q R S T U V W X Y Z

Misc Unsigned Bands - International Conflict - Na tab

this is a new song for ic that i just made up.

guitar 1
|--------------------------------------------------|  x however many
|--------------------------------------------------|
|------6-7--7-7-6--4-4-4---------------------------|
|--4-4--------------------7-6-2--------------------|
|--------------------------------------------------|
|--------------------------------------------------|

guitar 2
|--------------------------------------------------|  x however many
|--------------------------------------------------|
|--------------------------------------------------|
|--------------------------------------------------|
|------4-5--5-5-4-2-2-2----------------------------|
|--2-2-------------------5-4---0-------------------|

both
|--------------------------------------------------|  x however many
|--------------------------------------------------|
|--------------------------------------------------|
|-4---------4--4--4--4-----------------------------|
|-4---------3--3--3--3-----------------------------|
|-2---------2--2--2--2-----------------------------|
Tap to rate this tab
# A B C D E F G H I J K L M N O P Q R S T U V W X Y Z