Song name
# A B C D E F G H I J K L M N O P Q R S T U V W X Y Z

Misc Unsigned Bands - Glass Sky - From Me To You tab

Band: Glass Sky
Tabbed By:David(from Glass sky)

Ok, so basically no one has ever heard of us. Well were and acoustic band from Canada. 
really bored right now so im gonna put up are 1 good song...

Capo on 4th fret

Intro(harmonics)
e|-----16~-----|
B|-----16~-----|
G|-----16~-----|
D|-----16~-----|
A|-----16~-----|
E|-----16~-----|

Verse   (x12) (x8)  (x3)  (x8)
e|--------0-----0-----0-----0-----------|
B|--------0-----0-----0-----0-----------|
G|--------0-----0-----0-----2-----------|(on last chord, let it ring)
D|--------2-----2-----0-----2-----------|
A|--------2-----3-----2-----0-----------|
E|--------0-----3-----3-----0-----------|

Chorus  (x12)  (x12)
e|--------0------0-------------|
B|--------0------0-------------|
G|--------4------0-------------|
D|--------5------2-------------|
A|--------3------2-------------|
E|--------0------0-------------|

Bridge
e|--0~---0--------------0~---0-----------------------|
B|--0~-----0-------0----0~-----0-------0-------------|
G|--4~-----------4------4~-----------4---------------|
D|--5~---------5--------5~---------5-----------------|
A|--3~------------------3~---------------------------|
E|--0~------------------0~---------------------------|

e|--0~---0--------------0~---0-----------------------|
B|--0~-----0-------0----0~-----0--------0------------|
G|--0~-----------0------0~------------0--------------|
D|--2~---------2--------2~----------2----------------|
A|--2~------------------2~---------------------------|
E|--0~------------------0~---------------------------|

Out/Bridge (x8)  (x3) (x4)
e|----------0------0----0--------|
B|----------0------0----0--------|
G|----------0------4----7--------|
D|----------2------5----5--------|x2(except Em chord)
A|----------2------3----3--------|
E|----------0------0----0--------|
      (x3) (x4)
e|-----0-----0---------|
B|-----0-----3---------|
G|-----0-----0---------|
D|-----2-----2---------|x2
A|-----2-----2---------|
E|-----0-----0---------|

Im not to sure about how many times u play the chord but its a basic idea. For this song 
out are page at www.myspace.com/glasssky
Tap to rate this tab
# A B C D E F G H I J K L M N O P Q R S T U V W X Y Z