Song name
# A B C D E F G H I J K L M N O P Q R S T U V W X Y Z

Misc Unsigned Bands - Next Wednesday - Falling Up tab

   INTRO





   Guitar 
|---------------------------------|
|---------------------------------|
|---------------------------------|
|--5p05---------------------5p05--|
|--5p05---------------------5p05--|
|--5p05---------------------5p05--|


   Guitar 2
|----------------------------------------------------|
|----------------------------------------------------|
|------------------7p5----------------------7p5------|
|--8-5-7-5-8-5-7p5-----8p5--8-5-7-5-8-5-7p5-----8p5--|
|----------------------------------------------------|
|----------------------------------------------------|


   Guitar 1
|-----------------------------|
|-----------------------------|
|-----------------------------|
|--3p03-----------------3p03--|
|--3p03-----------------3p03--|
|--3p03-----------------3p03--|


   Guitar 2
|-----------------------------------------------------|
|-----------------------------------------------------|
|------------------5p3----------------------5p3-------|
|--6-3-5-3-6-3-5p3------6p3-6-3-5-3-6-3-5p3-----6p3---|
|-----------------------------------------------------|
|-----------------------------------------------------|



   Guitar 1
|--------------------------------------------------------|
|--------------------------------------------------------|
|--------------------------------------------------------|
|--1h31---------------------1h31---------------------5~--|
|--1h31---------------------1h31---------------------5~--|
|--1h31---------------------1h31---------------------5~--|


   Guitar 2
|----------------------------------------------------|
|----------------------------------------------------|
|------2-1-----2p1-3p1-2p1------2-1-----2p1-3p1-2p1--|
|--3-1-----3-1--------------3-1-----3-1--------------|
|----------------------------------------------------|
|----------------------------------------------------|



   VERSE

   Guitar 1 & 2
|-----------------------------------------------------------|
|--------4-5-7-5-------4-5-7-5-------4-5-7-5-------4-5-7-5--|
|--66-66---------66-66---------22-22---------22-22----------|
|--66-66---------66-66---------22-22---------22-22----------|
|--44-44---------44-44---------00-00---------00-00----------|
|-----------------------------------------------------------|  x2
   .. ..         .. ..         .. ..         .. ..


   PRECHORUS

   Guitars 1
|------------------------|
|------------------------|
|------------------------|
|------------------------|
|---------------------5--|
|--2h3-2h3-2h3-2h3-2h3---|
|--2---2---2---2---2-----|


   Guitar 2
|----------------------|
|----------------------|
|--99-99-99-99-99------|
|--99-99-99-99-99------|
|--77-77-77-77-77-12*--|
|----------------------|


   CHORUS


   Guitar 1
|---------------------------------|
|---------------------------------|
|---------------------------------|
|--5p05---------------------5p05--|
|--5p05---------------------5p05--|
|--5p05---------------------5p05--|


   Guitar 2
|----------------------------------------------------|
|----------------------------------------------------|
|------------------7p5----------------------7p5------|
|--8-5-7-5-8-5-7p5-----8p5--8-5-7-5-8-5-7p5-----8p5--|
|----------------------------------------------------|
|----------------------------------------------------|


   Guitar 1
|-----------------------------|
|-----------------------------|
|-----------------------------|
|--3p03-----------------3p03--|
|--3p03-----------------3p03--|
|--3p03-----------------3p03--|


   Guitar 2
|-----------------------------------------------------|
|-----------------------------------------------------|
|------------------5p3----------------------5p3-------|
|--6-3-5-3-6-3-5p3------6p3-6-3-5-3-6-3-5p3-----6p3---|
|-----------------------------------------------------|
|-----------------------------------------------------|



   Guitar 1
|--------------------------------------------------------|
|--------------------------------------------------------|
|--------------------------------------------------------|
|--1h31---------------------1h31---------------------5~--|
|--1h31---------------------1h31---------------------5~--|
|--1h31---------------------1h31---------------------5~--|


   Guitar 2
|----------------------------------------------------|
|----------------------------------------------------|
|------2-1-----2p1-3p1-2p1------2-1-----2p1-3p1-2p1--|
|--3-1-----3-1--------------3-1-----3-1--------------|
|----------------------------------------------------|
|----------------------------------------------------|


   VERSE

   Guitar 1 & 2
|-----------------------------------------------------------|
|--------4-5-7-5-------4-5-7-5-------4-5-7-5-------4-5-7-5--|
|--66-66---------66-66---------22-22---------22-22----------|
|--66-66---------66-66---------22-22---------22-22----------|
|--44-44---------44-44---------00-00---------00-00----------|
|-----------------------------------------------------------|  x2
   .. ..         .. ..         .. ..         .. ..


   PRECHORUS

|------------------------|
|------------------------|
|------------------------|
|------------------------|
|---------------------5--|
|--2h3-2h3-2h3-2h3-2h3---|
|--2---2---2---2---2-----|


   Guitar 2
|----------------------|
|----------------------|
|--99-99-99-99-99------|
|--99-99-99-99-99------|
|--77-77-77-77-77-12*--|
|----------------------|



   CHORUS

   Guitar 1
|---------------------------------|
|---------------------------------|
|---------------------------------|
|--5p05---------------------5p05--|
|--5p05---------------------5p05--|
|--5p05---------------------5p05--|


   Guitar 2
|----------------------------------------------------|
|----------------------------------------------------|
|------------------7p5----------------------7p5------|
|--8-5-7-5-8-5-7p5-----8p5--8-5-7-5-8-5-7p5-----8p5--|
|----------------------------------------------------|
|----------------------------------------------------|


   Guitar 1
|-----------------------------|
|-----------------------------|
|-----------------------------|
|--3p03-----------------3p03--|
|--3p03-----------------3p03--|
|--3p03-----------------3p03--|


   Guitar 2
|-----------------------------------------------------|
|-----------------------------------------------------|
|------------------5p3----------------------5p3-------|
|--6-3-5-3-6-3-5p3------6p3-6-3-5-3-6-3-5p3-----6p3---|
|-----------------------------------------------------|
|-----------------------------------------------------|



   Guitar 1
|--------------------------------------------------------|
|--------------------------------------------------------|
|--------------------------------------------------------|
|--1h31---------------------1h31---------------------5~--|
|--1h31---------------------1h31---------------------5~--|
|--1h31---------------------1h31---------------------5~--|


   Guitar 2
|----------------------------------------------------|
|----------------------------------------------------|
|------2-1-----2p1-3p1-2p1------2-1-----2p1-3p1-2p1--|
|--3-1-----3-1--------------3-1-----3-1--------------|
|----------------------------------------------------|
|----------------------------------------------------|


   
   BREAKDOWN

   Guitar 1 & 2
|---------------------------------------------------|
|---------------------------------------------------|
|---------------------------------------------------|
|--00000-3p1--00000-3p1p0--00000-3p1--00000-3p1-----|
|--00000-3p1--00000-3p1p0--00000-3p1--00000-3p1-3*--|
|--00000-3p1--00000-3p1p0--00000-3p1--00000-3p1-----|
   .....      .....        .....      .....

|-----------------------------------------------------------|
|-----------------------------------------------------------|
|-----------------------------------------------------------|
|--00000-0-00-00-00000-0-00-00-00000-0-00-00-00000-0-00-00--|
|--00000-0-00-00-00000-0-00-00-00000-0-00-00-00000-0-00-00--|
|--00000-0-00-00-00000-0-00-00-00000-0-00-00-00000-0-00-00--|
   ..... . .. .. ..... . .. .. ..... . .. .. ..... . .. ..


   
   CHORUS



   Guitar 1
|---------------------------------|
|---------------------------------|
|---------------------------------|
|--5p05---------------------5p05--|
|--5p05---------------------5p05--|
|--5p05---------------------5p05--|


   Guitar 2
|----------------------------------------------------|
|----------------------------------------------------|
|------------------7p5----------------------7p5------|
|--8-5-7-5-8-5-7p5-----8p5--8-5-7-5-8-5-7p5-----8p5--|
|----------------------------------------------------|
|----------------------------------------------------|


   Guitar 1
|-----------------------------|
|-----------------------------|
|-----------------------------|
|--3p03-----------------3p03--|
|--3p03-----------------3p03--|
|--3p03-----------------3p03--|


   Guitar 2
|-----------------------------------------------------|
|-----------------------------------------------------|
|------------------5p3----------------------5p3-------|
|--6-3-5-3-6-3-5p3------6p3-6-3-5-3-6-3-5p3-----6p3---|
|-----------------------------------------------------|
|-----------------------------------------------------|



   Guitar 1
|--------------------------------------------------------|
|--------------------------------------------------------|
|--------------------------------------------------------|
|--1h31---------------------1h31---------------------5~--|
|--1h31---------------------1h31---------------------5~--|
|--1h31---------------------1h31---------------------5~--|


   Guitar 2
|----------------------------------------------------|
|----------------------------------------------------|
|------2-1-----2p1-3p1-2p1------2-1-----2p1-3p1-2p1--|
|--3-1-----3-1--------------3-1-----3-1--------------|
|----------------------------------------------------|
|----------------------------------------------------|
Tap to rate this tab
# A B C D E F G H I J K L M N O P Q R S T U V W X Y Z