Song name
# A B C D E F G H I J K L M N O P Q R S T U V W X Y Z

Misc Unsigned Bands - Eyes Of A Martyr - Scars From Through tab

It Sounds 100% Correct To Me
b=bend
hp=harmonic pick

Intro is played by the piano

e--------------------------------------|
B--------------------------------------|
G--------------------------------------|
D--------------------------------------|
A--------------------------------------|
D--00000---000000---00000---000000-----|

e-----------------------------  ------------------------------------------|
B-----------------------------  ------------------------------------------|
G-------------7---9---6---7b--  -----------5---7---4---5hp----------------|
D-----------------------------  ------------------------------------------|  X4
A-----------------------------  ------------------------------------------|
D--0-0-0-0-0------------------  0-0-0-0-0---------------------------------|
e----------------------------------   ------------------------------------|
B----------------------------------   ------------------------------------|
G----------------------------------   ------------------------------------|
D----------------------------------   ------------------------------------|  X2
A----------------------------------   ------------------------------------|
D--0-0-0-0-0-0-0-0-0-0-0-0--3hp--X2  --1-1-1-1-1-1-1-1-1-1-1-1--3hp-------|X2

e-----------------------------  -----------------------------------|
B-----------------------------  -----------------------------------|
G-------------7---9---6---7b--  -----------5---7---4---5hp---------|
D-----------------------------  -----------------------------------|  X4
A-----------------------------  -----------------------------------|
D--0-0-0-0-0------------------  0-0-0-0-0--------------------------|

e--------------------------------------   --------------------------|
B--------------------------------------   --------------------------|
G--------------------------------------   --------------------------|
D--------------------------------------   --------------------------|
A--------------------------------------   -----------------------0--|
D--0-0-0-0-0---0-0-0-0-0-0---0-0-0-0-0-   0000-000-0-0-0-0-0-000-0--|

e--------------------------|
B--------------------------|
G--------------------------|
D--------------------------|
A--5hp---9hp---7hp---------|
D--------------------------|

e--------------------------  e---------------------------|
B--------------------------  B---------------------------|
G--------------------------  G---------------------------|
D--------------------------  D---------------------------|X2
A--8--5--7--4--8--5--1--4--  A--8--5--7--4--8--5--10--7--|
D--------------------------  D---------------------------|

e---------------------------  e--------------------------|
B---------------------------  B--------------------------|
G---------------------------  G--------------------------|
D---------------------------  D--------------------------|X2
A--8-8----4--5hp------------  A--8-8----1--4hp-----------|
D---------------------------  D--------------------------|

e--------------------------  e---------------------------|
B--------------------------  B---------------------------|
G--------------------------  G---------------------------|
D--------------------------  D---------------------------|X2
A--8--5--7--4--8--5--1--4--  A--8--5--7--4--8--5--10--7--|
D--------------------------  D---------------------------|

e---------------------------  e--------------------------|
B---------------------------  B--------------------------|
G---------------------------  G--------------------------|
D---------------------------  D--------------------------|X2
A--8-8----4--5hp------------  A--8-8----1--4hp-----------|
D---------------------------  D--------------------------|

e---------------------------|
B---------------------------|
G---------------------------|
D---------------------------|X4
A---------------------------|
D--0000-0-0-0-0-------------|

e---------------------------|
B---------------------------|
G---------------------------|
D---------------------------|
A---------------------------|
D--000000--000--000---------|

e---------------------------|
B---------------------------|
G---------------------------|
D---------------------------|X13
A--0------------------------|
D--0-0-0-0-0----------------|
Tap to rate this tab
# A B C D E F G H I J K L M N O P Q R S T U V W X Y Z