Song name
# A B C D E F G H I J K L M N O P Q R S T U V W X Y Z

Misc Unsigned Bands - Stilwell - Introduction tab

sorry only guitar 1, there is a solo done by the lead guitarist because thats what this 
song basically is, but the rhythem guitar does this the whole song

GUITAR 1

e|-----0---------| x4
B|---6---6-------|
G|-7-------------|
D|---------------|
A|---------------|
E|---------------|

e|-----0---------| x4
B|---6---6-------|
G|-5-------------|
D|---------------|
A|---------------|
E|---------------|

repeated throughout song
Tap to rate this tab
 
# A B C D E F G H I J K L M N O P Q R S T U V W X Y Z