Song name
# A B C D E F G H I J K L M N O P Q R S T U V W X Y Z

Misc Unsigned Bands - Lakes - Photographs tab

----------------------------------------------------------------------------
			      Photographs - Lakes
----------------------------------------------------------------------------
Tuning:Standard

~ Let it ring.           Just have to listen to the song
/ Slide.                  for timing and strum pattern.
h Hammer on.

Intro - Guitar 1             |  Guitar 2
e|---3~---5~----7---5---3~---|--------------------|
B|---3~---5~----7---5---3~---|---3-3-3-3-3-3-3----|
G|---4~---6~----7---6---4~---|--------------------|
D|---5~---7~----9---7---5~---|--------------------|
A|---5~---7~----9---7---5~---|--------------------|
E|---3~---5~----7---5---3~---|--------------------|

Verse - Guitar 1   |   Guitar 2
(All the years...) |
e|---3---5~--------|--------------------------------------|
B|---3---5~--------|-------3-2~---------3-2---------------|
G|---4---6~--(x8)--|------------------------4-2-4---(x4)--|
D|---5---7~--------|--2/4----------2/4--------------------|
A|---5---7~--------|--------------------------------------|
E|---3---5~--------|--------------------------------------|

Verse(continued) Guitar 1 |   Guitar 2
(A photograph of a...)    |
e|---7---5---3------------|-------------------------------------------------------|
B|---7---5---3------------|-------------------------------------------------------|
G|---7---6---4---(x4)-----|-------2-------------------------2---------------------|
D|---9---7---5------------|---------2-2~--2-4-5-4-2-----------2-2~--4-4h5-0--(x2)-|
A|---9---7---5------------|-2-2-0---------------------2-2-0-----------------------|
E|---7---5---3------------|-------------------------------------------------------|

Chorus - Guitar 1                          |  Guitar 2
(And we can talk...)                       |
e|---2---0---2---3---2---0---2-----3-------|-----2-2-0-0----------5---5---|
B|---3---2---3---3---3---2---3-----3-------|-3-3---------3-3-3-2h3---3-3--|
G|---2---2---4---4---2---2---4-----4--(x2)-|------------------------------|
D|---0---2---4---5---0---2---4---4/5-------|-------------------------(x8)-|
A|---x---0---2---5---x---0---2---4/5-------|------------------------------|
E|---x---x---x---3---x---x---x---2/3-------|------------------------------|

Verse
Chorus

          (This is where I'll have some mistakes)

Bridge - Guitar 1          |   Guitar 2
(A photographs a story...) |(Love will be always...)
e|------------------7---3--|---------------------------------------------|
B|--3----5----------7---3--|---------------------------------------------|
G|--4-x8-6-x8-(x2)--7---4--|---------2~---------2~-----------------------|
D|--5----7----------9---5--|---2-0-0------2-0-0----------2-0~-------2-0~-|
A|------------------9---5--|-0----------0----------0-2-0------0-2-0------|
E|------------------7---3--|---------------------------------------------|

Ending - Guitar 1
e|---3---5~----|
B|---3---5~----|
G|---4---6~----|
D|---5---7~----|
A|---5---7~----|
E|---3---5~----|

============================================================================
http://lakesband.com/
www.myspace.com/lakes
Tap to rate this tab
# A B C D E F G H I J K L M N O P Q R S T U V W X Y Z