Song name
# A B C D E F G H I J K L M N O P Q R S T U V W X Y Z

Misc Unsigned Bands - Roundabout - Rain tab

Song: Rain
Artist: Roundabout
Album: Automatic Sprikler System

This is one of the best songs on the album play the verses and chorus twice

Repeat this part
e|---------------------------------------------------------------------------|
B|-1-0---3-0--1-0---3--------------------------------------------------------|
G|-----0---------0-----------------------------------------------------------|
D|---------------------------------------------------------------------------|
A|---------------------------------------------------------------------------|
E|---------------------------------------------------------------------------|
Intro
repeat 6 times
e|---------------------------------------------------------------------------|
B|---------------------------------------------------------------------------|
G|---------------------------------------------------------------------------|
D|----7-7-7-7-7/5-5-5-5-5-------------4-4-4-4-4------------------------------|
A|----5-5-5-5-5/3-3-3-3-3--5-5-5-5-5--2-2-2-2-2------------------------------|
E|-------------------------3-3-3-3-3-----------------------------------------|
 Verse palm muted
      x x x x x x  x x x x x  x x x x x  x x x x x  Repeat twice
e|p-s------------------------------------------------------------------------|
B|i-l------------------------------------------------------------------------|
G|c-i---7-7-7-7-7/5-5-5-5-5/4-4-4-4-4----------------------------------------|
D|k-d---7-7-7-7-7/5-5-5-5-5/4-4-4-4-4-5-5-5-5-5------------------------------|
A|--e---5-5-5-5-5/3-3-3-3-3/2-2-2-2-2-5-5-5-5-5------------------------------|
E|------------------------------------3-3-3-3-3------------------------------|
Chorus
Repeat Twice
e|-p-s--1p0---3p0------------------------------------------------------------|
B|-i-l------0----------------------------------------------------------------|
G|-c-i-----------------------------------------------------------------------|
D|-k-d-----------------------------------------------------------------------|
A|---e-----------------------------------------------------------------------|
E|---------------------------------------------------------------------------|
Outro
once
| /  slide up
| \  slide down
| h  hammer-on
| p  pull-off
| ~  vibrato
| +  harmonic
| x  Mute note
===============================================================================
Tap to rate this tab
 
# A B C D E F G H I J K L M N O P Q R S T U V W X Y Z