Song name
# A B C D E F G H I J K L M N O P Q R S T U V W X Y Z

Misc Unsigned Bands - Skeeter - Untitledyet tab

starting 1x
-------3-3-3-3-3---3-3-3-3-3---3-3-3-3-3---3-3-3-3-3-|
-------3-3-3-3-3---3-3-3-3-3---3-3-3-3-3---3-3-3-3-3-|
-------0-0-0-0-0---0-0-0-0-0---2-2-2-2-2---0-0-0-0-0-|
-------0-0-0-0-0---0-0-0-0-0---2-2-2-2-2---0-0-0-0-0-|
-------2-2-2-2-2---3-3-3-3-3---2-2-2-2-2---3-3-3-3-3-|
3------3-3-3-3-3-2-2-2-2-2-2-3-2-2-2-2-2-2-2-2-2-2-2-|

main riff 5x
3-3-3-3-3-3--3-3-3-3-3--3-3-3-3-3--3-3-3-3-3-|
3-3-3-3-3-3--3-3-3-3-3--3-3-3-3-3--3-3-3-3-3-|
0-0-0-0-0-0--0-0-0-0-0--2-2-2-2-2--0-0-0-0-0-|
0-0-0-0-0-0--0-0-0-0-0--2-2-2-2-2--0-0-0-0-0-|
2-2-2-2-2-2--3-3-3-3-3--2-2-2-2-2--3-3-3-3-3-|
3-3-3-3-3-3222-2-2-2-2222-2-2-2-2333-3-3-3-3-|

second riff(same as first but faster)
33333333333333333333
33333333333333333333
00000000002222200000
00000000002222200000
22222333332222233333
33333222223333322222

outro
same as fiff with gradual slow until reaching first chord!
Tap to rate this tab
# A B C D E F G H I J K L M N O P Q R S T U V W X Y Z