Song name
# A B C D E F G H I J K L M N O P Q R S T U V W X Y Z

Misc Unsigned Bands - Next Wednesday - Only I Can Be You tab

       Tuning: DADGBE (Low to High)




       INTRO

    Guitar 1
E|------------------------------------------------------------------|
B|------------------------------------------------------------------|
G|----------3-3-3----------3-3-3----------3-3-3----------3-3-3------|
D|--0-x-0-x-3-3-3--0-x-0-x-3-3-3--0-x-0-x-3-3-3--0-x-0-x-3-3-3--0~--|
A|--0-x-0-x-1-1-1--0-x-0-x-1-1-1--0-x-0-x-1-1-1--0-x-0-x-1-1-1--0~--|
D|--0-x-0-x--------0-x-0-x--------0-x-0-x--------0-x-0-x--------0~--|


    Guitar 2
E|----------------------------------------------------------------|
B|----3---------------3--------------3--------------3-------------|
G|--4---6-4-6-4-3v--4---6-4-6-4-0--4---6-4-6-4-3--4---6-4-6-4-3*--|
D|----------------------------------------------------------------|
A|----------------------------------------------------------------|
D|----------------------------------------------------------------|



      VERSE

    Guitar 1
E|------------------------------|
B|------------------------------|
G|--3333-4444-44----------------|
D|--xxxx-xxxx-xx-555555-444444--|
A|--1111-2222-22-xxxxxx-xxxxxx--|
D|---------------555555-444444--|  (x6)

    Guitar 2
E|------------------------------|
B|------------------------------|
G|---333--444--4----------------|
D|--1----2----2---555-5--444-4--|
A|---------------5---5--4---4---|
D|------------------------------|  (x6)



      CHORUS


    Guitar 1
E|------------------------------------------------------------------|
B|------------------------------------------------------------------|
G|----------3-3-3----------3-3-3----------3-3-3----------3-3-3------|
D|--0-x-0-x-3-3-3--0-x-0-x-3-3-3--0-x-0-x-3-3-3--0-x-0-x-3-3-3--0~--|
A|--0-x-0-x-1-1-1--0-x-0-x-1-1-1--0-x-0-x-1-1-1--0-x-0-x-1-1-1--0~--|
D|--0-x-0-x--------0-x-0-x--------0-x-0-x--------0-x-0-x--------0~--|


    Guitar 2
E|----------------------------------------------------------------|
B|----3---------------3--------------3--------------3-------------|
G|--4---6-4-6-4-3v--4---6-4-6-4-0--4---6-4-6-4-3--4---6-4-6-4-3*--|
D|----------------------------------------------------------------|
A|----------------------------------------------------------------|
D|----------------------------------------------------------------|



      VERSE


    Guitar 1
E|------------------------------|
B|------------------------------|
G|--3333-4444-44----------------|
D|--xxxx-xxxx-xx-555555-444444--|
A|--1111-2222-22-xxxxxx-xxxxxx--|
D|---------------555555-444444--|  (x6)

    Guitar 2
E|------------------------------|
B|------------------------------|
G|---333--444--4----------------|
D|--1----2----2---555-5--444-4--|
A|---------------5---5--4---4---|
D|------------------------------|  (x6)



      CHORUS


    Guitar 1
E|------------------------------------------------------------------|
B|------------------------------------------------------------------|
G|----------3-3-3----------3-3-3----------3-3-3----------3-3-3------|
D|--0-x-0-x-3-3-3--0-x-0-x-3-3-3--0-x-0-x-3-3-3--0-x-0-x-3-3-3--0~--|
A|--0-x-0-x-1-1-1--0-x-0-x-1-1-1--0-x-0-x-1-1-1--0-x-0-x-1-1-1--0~--|
D|--0-x-0-x--------0-x-0-x--------0-x-0-x--------0-x-0-x--------0~--|


    Guitar 2
E|----------------------------------------------------------------|
B|----3---------------3--------------3--------------3-------------|
G|--4---6-4-6-4-3v--4---6-4-6-4-0--4---6-4-6-4-3--4---6-4-6-4-3*--|
D|----------------------------------------------------------------|
A|----------------------------------------------------------------|
D|----------------------------------------------------------------|



      BREAKDOWN

    Guitar 1 & 2
E|------------------------------------------------------------------------|
B|------------------------------------------------------------------------|
G|-------------33333333------------3------------33333333------------3/15--|
D|--000-0-00-0-22222222-000-0-00-0-2-000-0-00-0-22222222-000-0-00-0-2/14--|
A|--000-0-00-0-11111111-000-0-00-0-1-000-0-00-0-11111111-000-0-00-0-1/13--|
D|--000-0-00-0----------000-0-00-0---000-0-00-0----------000-0-00-0-------|
    ... . .. .          ... . .. .   ... . .. .          ... . .. .

E|-------------------------------------------------|
B|-------------------------------------------------|
G|-------------------3-3-3------------------3-3-3--|
D|--000-0-00-0-0-000-2-2-2-000-0-00-0-0-000-2-2-2--|
A|--000-0-00-0-0-000-1-1-1-000-0-00-0-0-000-1-1-1--|
D|--000-0-00-0-0-000-------000-0-00-0-0-000--------| (x4)



      CHORUS

    Guitar 1
E|------------------------------------------------------------------|
B|------------------------------------------------------------------|
G|----------3-3-3----------3-3-3----------3-3-3----------3-3-3------|
D|--0-x-0-x-3-3-3--0-x-0-x-3-3-3--0-x-0-x-3-3-3--0-x-0-x-3-3-3--0~--|
A|--0-x-0-x-1-1-1--0-x-0-x-1-1-1--0-x-0-x-1-1-1--0-x-0-x-1-1-1--0~--|
D|--0-x-0-x--------0-x-0-x--------0-x-0-x--------0-x-0-x--------0~--|


    Guitar 2
E|----------------------------------------------------------------|
B|----3---------------3--------------3--------------3-------------|
G|--4---6-4-6-4-3v--4---6-4-6-4-0--4---6-4-6-4-3--4---6-4-6-4-3*--|
D|----------------------------------------------------------------|
A|----------------------------------------------------------------|
D|----------------------------------------------------------------|




    * = Artificial Harmonic
    v = Vibrato
    . = Palm Mute
    x = Mute String
    / = Slide Up
    ~ = Hold Out Note
Tap to rate this tab
# A B C D E F G H I J K L M N O P Q R S T U V W X Y Z