Song name
# A B C D E F G H I J K L M N O P Q R S T U V W X Y Z

Misc Unsigned Bands - Daybreak - Time tab

DAYBREAK- TIME

Good ol' powerviolence thrashy song and shit.
Whoo!
Play in DROP D

intro
|-------------------------------------|
|------------------------------10-8-7-|
|-9-99-999-xxx-5-xx-7-9-99-999--------|
|-------------------------------7-5-4-|
|-7-77-777-xxx-3-xx-5-7-77-777--------|
|-------------------------------------|

|-------------------------------------|
|-------------------------------------|
|-9-99-999-xxx-5-xx-7-9-99-999-5----7-|
|-------------------------------------|
|-7-77-777-xxx-3-xx-5-7-77-777-3----5-|
|-------------------------------------|

|-------------------------------------|
|------------------------------10-8-7-|
|-9-99-999-xxx-5-xx-7-9-99-999--------|
|-------------------------------7-5-4-|
|-7-77-777-xxx-3-xx-5-7-77-777--------|
|-------------------------------------|

|---------------------|
|---------------------|
|---------------------|
|-0000-1111-4444-5555-| x4
|-0000-1111-4444-5555-|
|-0000-1111-4444-5555-|



|----|
|----|
|----|
|-0~-|
|-0~-|
|-0~-|

|------------------|
|------------------|
|------------------|
|-1-1-0---1-1-0-1--| x4
|-1-1-0---1-1-0-1--|
|-1-1-0---1-1-0-1--|

|-------|
|-------|
|-------|
|-1-1-0-|
|-1-1-0-|
|-1-1-0-|
Tap to rate this tab
 
# A B C D E F G H I J K L M N O P Q R S T U V W X Y Z