Song name
# A B C D E F G H I J K L M N O P Q R S T U V W X Y Z

Misc Unsigned Bands - The Sophomore Attempt - Get Me An Exit tab

Help us improve GuitareTab! Take a short survey!
okay so i only figured out the beginning of this song. I dont no if any of you have 
of this band but you should check out their myspace.

E|--------------------------------------------------------------|
B|-----0----------0----------0----------0-----------------------|
G|---2---2------2---2------2---2------2---2---------------------|    x2
D|-4----------4----------0----------0---------------------------|
A|--------------------------------------------------------------|
D|--------------------------------------------------------------|

 Then Jeremiah comes in with the singing.

E|--------------------------------------------------------------|
B|-----0----------0----------0----------0-----------------------|
G|---2---2------2---2------2---2------2---2---------------------|    x4
D|-4----------4----------0----------0---------------------------|
A|--------------------------------------------------------------|
D|--------------------------------------------------------------|
  " Cold water from the....."


Then second guitar and bass come in but i have not figured those out.
Related for The Sophomore Attempt - Get Me An Exit tab