Song name
# A B C D E F G H I J K L M N O P Q R S T U V W X Y Z

Misc Unsigned Bands - Bankrupt - Something Like Nothing tab

----------------------------------------------------------------------------
		    Something Like Nothing - Bankrupt
----------------------------------------------------------------------------
Tabbed by: Robin Wakerell
Email: guitar_crazed_moron@hotmail.com

Tuning: Standard

Intro/Verse
e|-------------------------------------------------------------------------|
B|-------------------------------------------------------------------------|
G|-----------------------------------5----------------------------------77-|
D|-7-xx-7-x-7-x-777-/-5-xx-5-x-5-x-555-7-xx-7-x-7-x-777-/-5-xx-5-x-5-x-577-|
A|-7-xx-7-x-7-x-777-/-5-xx-5-x-5-x-55--7-xx-7-x-7-x-777-/-5-xx-5-x-5-x-553-|
E|-5-xx-5-x-5-x-555-/-3-xx-3-x-3-x-33--5-xx-5-x-5-x-555-/-3-xx-3-x-3-x-3---|

Pre-Chorus
e|-----------------------------------------------|
B|-----------------------------------------------|
G|---------------------------------7-7-6-/-7-/-6-|
D|-7---7-/-5---5-5-4-5-7---7-/-5---7-7-6-/-7-/-6-|
A|-7---7-/-5---5-5-4-5-7---7-/-5---5-5-4-/-5-/-4-|
E|-5---5-/-3---3-3-2-3-5---5-/-3-----------------|

Chorus
Part One                          Part Two
e|-------------------------------|------------------|
B|-------------------------------|------------------|
G|-------------5-4-------7---9---|-7-7-5-7-9-9-7p5--|
D|-7---7-/-5---5-4-7-----7---9---|-7-7-5-7-9-9-7p5--|
A|-7---7-/-5---3-2-7-----5---7---|------------------|
E|-5---5-/-3-------5-------------|------------------|

Song Order:
Intro x2
Verse x2
Pre-chorus
Chorus x2
Verse x3
Pre-chorus
Chorus x2
Verse x2 
Chorus pt. 2

 /  slide up
 p  pull-off
 x  scratched note
============================================================================
Tap to rate this tab
 
# A B C D E F G H I J K L M N O P Q R S T U V W X Y Z