Song name
# A B C D E F G H I J K L M N O P Q R S T U V W X Y Z

Misc Unsigned Bands - Blacklite - Deadbeat Hate Girl tab

~ = vibrato
. = Palm mute
h = hammer on
p = pull off
/ = slide

Intro
e|------------------|-----------x5----------------------------------|
b|------------------|-----------------------------------------------|
g|------7-5-------5-|----------7-5-------------5--------------------|
d|--7-7-5-3-7-7-5-3-|7-7-7-7-7-5-3-7-7-7-7-7-5-3(last time let ring)|
a|--5-5-----5-5-3---|5-5-5-5-5-----5-5-5-5-5-3----------------------|
E|------------------|-----------------------------------------------|
    . .     . .

Verse
e|--------------------------------------------------------|
b|--------------------------------------------------------|
g|-----7-----5-----7-----5/7------7-----5-----7-----9-----|
d|-7-7-5-7-7-3-7-7-5-7-7-3/5--7-7-5-7-7-3-7-7-5-7-7-7-----|
a|-5-5---5-5---5-5---5-5------5-5---5-5---5-5---5-5-------|
E|--------------------------------------------------------|
   . .   . .   . .   . .      . .   . .   . .   . .

Chorus
e|-------------------------------------------|
b|-------------------------------------------|
g|-----------5-5-5---------------------------|
d|-7-7-7-7-7-3-3-3-5-5-5-7-7-7-7-7-5-5-5-2---|
a|-5-5-5-5-5-------3-3-3-5-5-5-5-5-3-3-3-0---|
E|-------------------------------------------|

Breakdown
e|-------------|--------x3---------|
b|-------------|-------------------|
g|-------------|-------------------|
d|---7---5---2-|-----7-----5-----2-|
a|-0-5-0-3-0-0-|-0-0-5-0-0-3-0-0-0-|
E|-------------|-------------------|

Solo
e|----------------------------------------------------------------------|
b|------------------------------------12-10h12-------------------13-15~-|
g|-----------------8~---------------------------------------------------|
d|---------9-11-12------------9-11-12-------------------9-11-12---------|
a|-9-11-12------------9-11-12-------------------9-11-12-----------------|
E|----------------------------------------------------------------------|
   .  .  . .  .  .    .  .  . .  .  .           .  .  . .  .  .

e|-13h15h17p15p13x5------|
b|-------------------15~-|
g|-----------------------|
d|-----------------------|
a|-----------------------|
E|-----------------------|

Intro
Verse
Chorus
Verse
Chorus
Breakdown
Solo
Chorus
Intro (last half)
Tap to rate this tab
# A B C D E F G H I J K L M N O P Q R S T U V W X Y Z