Song name
# A B C D E F G H I J K L M N O P Q R S T U V W X Y Z

Misc Unsigned Bands - Skemata - Kordoble tab

Intro
-------------------|
-------------------|
7~-----------------|
7~--7~--9~--5~-----|
5~--7~--9~--5~-----|
----5~--7~--3~-----|

Verse
The first part of the verse is the bass playing the single notes of the chords 
with some fills. I dont know the exact palm muting for the guitar so you have to figure it 
on your own.

----------------|
----------------|
7~--------------|
7~-7~-9~-5~-----|
5~-7~-9~-5~-----|
---5~-7~-3~-----|
.  .  .  .

Chorus:

---------------------|
---------------------|
7~----9~-------------|
7~-7~-9~-5-5-5-4-5---|
5~-7~-7~-5-5-5-4-5---|
---5~----3-3-3-2-3---|

Outro

---------------------|
---------------------|
7~-------------------|
X~-------------------|
5~-------------------|
---------------------|

Key: ~=Struming Patern
.= pm
Tap to rate this tab
# A B C D E F G H I J K L M N O P Q R S T U V W X Y Z