Song name
# A B C D E F G H I J K L M N O P Q R S T U V W X Y Z

Misc Unsigned Bands - Bankrupt - Good Morning tab

Bankrupt - Good Morning

Tabber: Robin Wakerell
Email: guitar_crazed_moron@hotmail.com

Tuning: Standard (eBGDAE)

Intro:               
  Fig. 1                        Fig. 2                            Fig. 3
e|-----5-------5-------5h7p5---|-----5-------5-----5-------------|--5--|
B|---5---5---5---5---5-------5-|---5---5---5---5-----5h6p5---5-5-|--5--|
G|-6-------6-------6-----------|-5-------5-------5---------7-5-5-|--5--|
D|-----------------------------|---------------------------------|-----|
A|-----------------------------|---------------------------------|-----|
E|-----------------------------|---------------------------------|-----|

Intro to Verse:
e|----------------------------------------------------------------------|
B|----------------------------------------------------------------------|
G|-66-666-666-6-6-6-55-555-555-5-5-5-66-666-666-6-6-6-55-555-5----------|
D|-66-666-666-6-6-6-55-555-555-5-5-5-66-666-666-6-6-6-55-555-5-5-5-7-7--|
A|-44-444-444-4-4-4-33-333-333-3-3-3-44-444-444-4-4-4-33-333-3-5-5-7-7--|
E|-------------------------------------------------------------3-3-5-5--|

Verse:
e|-------------------------------------------------------------------------|
B|-------------------------------------------------------------------------|
G|-66-666666666666-----55-555-555-5-5-5-66-666666666666-----55-555-5-------|
D|-66-666666666666-----55-555-555-5-5-5-66-666666666666776--55-555-5-55-77-|
A|-44-4444444444447764-33-333-333-3-3-3-44-444444444444---7-33-333-3-55-77-|
E|-------------------------------------------------------------------33-55-|
P.M   ................                     ................

Bridge:
e|--------------------------------------------------------------------|
B|------------5----------------4--6-------------5---------------------|
G|-66-666-666--6p5b-55-555-555--5--5-66-666-666--6p5b-55-555-5--------|
D|-66-666-666-------55-555-555-------66-666-666-------55-555-5-55-77--|
A|-44-444-444-------33-333-333-------44-444-444-------33-333-3-55-77--|
E|-------------------------------------------------------------33-55--|

Chorus:
 Fig. 1
e|------------------------------------------------|
B|------------------------------------------------|
G|-66-6666666666669988-55-55555555512121212111199-|
D|-66-xxxxxxxxxxxxxxxx-55-xxxxxxxxx-x-x-x-x-x-xxx-|
A|-44-4444444444447766-33-33333333310101010-9-977-|
E|------------------------------------------------|
P.M   ................    ................. . ...                 

Fig.2
e|--------------------------------------------------|
B|--------------------------------------------------|
G|-66-6666666666669988-55-5555555551212121215151515-|
D|-66-xxxxxxxxxxxxxxxx-55-xxxxxxxxx-x-x-x-x-x-x-x-x-|
A|-44-4444444444447766-33-3333333331010101013131313-|
E|--------------------------------------------------|
P.M   ................    ................. . . . .                 

Outro:
 Fig.1                          Fig.2
e|-----5-------5-------5h7p5---|-----5-------5-----5---------------------|
B|---5---5---5---5---5-------5-|---5---5---5---5-----5h6p5---------------|
G|-6-------6-------6-----------|-5-------5-------5---------5h7p5h7p5h7p5-|
D|-----------------------------|-----------------------------------------|
A|-----------------------------|-----------------------------------------|
E|-----------------------------|-----------------------------------------|

 Fig.3                                Fig.4
e|-----5-------5-----5---------------|-----5-------5-----5---------------|
B|---5---5---5---5-----5h6p5h6p5h6p5-|---5---5---5---5-----5-6-5-6-5-6-5-|
G|-5-------5-------5-----------------|-5-------5-------5---5-5-5-5-5-5-5-|
D|-----------------------------------|-----------------------------------|
A|-----------------------------------|-----------------------------------|
E|-----------------------------------|-----------------------------------|

  Fig.5                                   Fig.6                     Fig.7
e|-55-555-555-5h7-5----55-555-5-----5-55-|-5---5h7-5---5-----------|-5----|
B|-55-555-555-5----7-5-55-555-5h6-5-5-55-|-5---------7-5-5h6p5-----|-5----|
G|-66-666-666-6--------55-555-5-----7-55-|-6-----------5-------7p5-|-6----|
D|---------------------------------------|-------------------------|------|
A|---------------------------------------|-------------------------|------|
E|---------------------------------------|-------------------------|------|

Order: () - play the figures in order)
Intro (1-2-1-3)
Intro to verse
Verse x2
Bridge
Verse x2
Bridge
Chorus (1 x3 - 2)
Bridge
Outro (1-4-1-2-1-3-1-2-1-4-5 x2-6 x2-7 x2)

  h - hammer-on
  p - pull-off
  b - bend
P.M - palm mute
============================================================================
Tap to rate this tab
# A B C D E F G H I J K L M N O P Q R S T U V W X Y Z