Song name
# A B C D E F G H I J K L M N O P Q R S T U V W X Y Z

Misc Unsigned Bands - One Mans Opinion - Crawl Into Bed With Me tab

e----------------------------------------------------------------- 12*12*-I
b------------------------------------------------------------12*12*-------I
g-------9-9-------9-9-------9-9-------9-9------9-9------9-9---------------I 
d-11-11-----11-11-----10-10-----10-10-----9-9-----9-9---------------------I
a-------------------------------------------------------------------------I
E-------------------------------------------------------------------------I

e---------12*12*I
b--12*12*-------I
g---------------I
d---------------I
a---------------I
E---------------I

e-------------------------------------------I
b-------------------------------------------I
g---13-13-13-13-13\12-12-12-12-12\9-9-9-9-9-I
d-------------------------------------------I
a---11-11-11-11-11\10-10-10-10-10\7-7-7-7-7-I
E-------------------------------------------I

'I've had it up to here with trust'

e-------------------------------------------------I
b-------------------------------------------------I
g----------13----13-12----12----12----------------I
d-------------------------------------14-14-14-14-I
a----11-11----11-------11----11----11---11-11-11--I
E-------------------------------------------------I

Stop swearing ... Stop fucking swearing ...

e-------------------------------------------------------I
b-------------------------------------------------------I
g---13-13-13-13-13\12-12-12-12-12\9-9-9-9-9-----5-5-5-5-I
d-----------------------------------------------5-5-5-5-I
a---11-11-11-11-11\10-10-10-10-10\7-7-7-7-7-----3-3-3-3-I
E-------------------------------------------------------I

Chorus:
 Crawl into Bed with me
e---------------------------------I
b---------------------------------I
g---------------------------------I
d-2---5-5---7-7----10-10-10-10-10-I
a-2---5-5---7-7----10-10-10-10-10-I
E-0---3-3---5-5----8--8--8--8--8--I

Make you hate yourself
e---------------------------------I
b---------------------------------I
g------------------5--5--5--------I
d-2---5-5---7-7----5--5--5---3-2--I
a-2---5-5---7-7----3--3--3---3-2--I
E-0---3-3---5-5--------------1-0--I

Bridge:
Pants down and the writing's on the wall

e--------------------------------------------------------------------------I
b--------------------------------------------------------------------------I
g-------------9-9-9-9-9---11-11-11-11-11--12-12-12-12-12---9-9-9-9-9-9-9-9-I
d-2-2-2-2------------------------------------------------------------------I
a-2-2-2-2-----7-7-7-7-7---9--9--9--9--9---10-10-10-10-10---7-7-7-7-7-7-7-7-I
E-0-0-0-0------------------------------------------------------------------I
  ^ ^ ^ ^       
(palm mute)

e-------------------------------------------------------I
b-------------------------------------------------------I
g---9-9-9-9\8-8-8-8-8/11-11-11-11/12-12-12-12\9-9-9-9-9-I
d-------------------------------------------------------I
a---7-7-7-7\6-6-6-6-6/9--9--9--9/-10-10-10-10\7-7-7-7-7-I
E-------------------------------------------------------I

e--------------------------------------------------------------I
b--------------------------------------------------------------I
g-9-9-9-9-9---11-11-11-11-11--12-12-12-12-12---9-9-9-9-9-9-9-9-I
d--------------------------------------------------------------I
a-7-7-7-7-7---9--9--9--9--9---10-10-10-10-10---7-7-7-7-7-7-7-7-I
E--------------------------------------------------------------I

Chorus

End on 
e-------------------------------I
b-------------------------------I
g------------------5--5--5------I
d-2---5-5---7-7----5--5--5---3--I
a-2---5-5---7-7----3--3--3---3--I
E-0---3-3---5-5--------------1--I

Lyrics:
Crawl Into Bed With Me

Chorus
".... Crawl into bed with me and I'll make you hate yourself."

Verse 1
I've had it up to here with trust and you
And party situations.
Adam and Eve -- You are
Fine specimen of fruitless indescretion.

Stop swearing ... Stop fucking swearing ...
You lied to me and it's public information.
So, stop swearing ... Stop fucking swearing...
You lied to me.

"And why don't you just ...

Verse 2
I'm sure the banter was so eloquent
Wrought with gentle warmth and manners
His eyes drawn in by your intelligence
And his hands by your kind nature

Stop swearing ... Stop fucking swearing...
You lied to me and it's public information.
Stop swearing ... Stop fucking swearing...
You lied to me.

"And why don't you just...

Bridge
Pants down and the writing's on the wall:
Chemistry at work.
And this heart you've seized will never truly find itself.

Legs spread and the silence turns to moans:
Chemistry at work.
And this heart that bleeds will never truly find itself.
Go fuck yourself.


Tap to rate this tab
# A B C D E F G H I J K L M N O P Q R S T U V W X Y Z