Song name
# A B C D E F G H I J K L M N O P Q R S T U V W X Y Z

Misc Unsigned Bands - Black Magyk - Shealyn tab

----------------------------------------------------------------------------
			  SHEALYN - Black Magyk
----------------------------------------------------------------------------
Tabbed by: Evan
Email: guitarhero9961@yahoo.com

Tuning: Standard

Nice little instrumental piece. About a minute long. I enjoyed it.

e|-2-------|--------|--------|---------|
B|-2-------|5-------|2-------|0--------|
G|*2-------|6-------|4-------|2-------*|
D|*4-------|6-------|4-------|2-------*|
A|-4-------|4-------|2-------|0--------|
E|-2-------|--------|--------|---------|

e|---------|--------|--------|---------|
B|----5----|---2----|---0----|----0----|
G|*--6--6--|--4--4--|--2--2--|--2--2-2*|
D|*-6-----6|-4-----4|-2-----2|-2-2--2-*|
A|-4-------|2-------|0-------|0--------|
E|---------|--------|--------|---------|

e|--------|--------|--------|
B|----0---|----0---|----0---|
G|--2--2-2|--2--2-2|--2--2-2|
D|-2-2--2-|-2-2--2-|-2-2--2-|
A|0-------|0-------|0-------|
E|--------|--------|--------|

e|---------|---------|
B|-55552222|00000----|
G|*66664444|22222---*|
D|*66664444|22222---*|
A|-44442222|00000----|
E|---------|---------|

This last section is all in triplets, so there are twelve dashes instead of eight. Each 
is one third of a beat.

e|------------|------------|------------|---------0--|
B|0--0--0--2--|0--0--0--2--|0--0--0--2--|0--0---2-2--|
G|-2--2--2--2-|-2--2--2--2-|-2--2--2--2-|-2--2-2-22--|
D|--2--2--2--2|--2--2--2--2|--2--2--2--2|--2--2---2--|
A|------------|------------|------------|---------0--|
E|------------|------------|------------|------------|

============================================================================
Tap to rate this tab
# A B C D E F G H I J K L M N O P Q R S T U V W X Y Z