Song name
# A B C D E F G H I J K L M N O P Q R S T U V W X Y Z

Misc Unsigned Bands - Black Magyk - Revolution tab

----------------------------------------------------------------------------
			   REVOLUTION - Black Magyk
----------------------------------------------------------------------------
Tabbed by: Evan
Email: guitarhero9961@yahoo.com

Tuning: Standard

120 bpm
Not to time

  Intro
e|-------------------------------------------------------------------------|
B|-------------------------------------------------------------------------|
G|-------------------------------------------------------------------------|
D|-----9/10------9/10------9/10-9/7------9/10------9/10------9/10-9/7-5/3--|
A|---7---------7---------7-------------7---------7---------7---------------|
E|-5---------5---------5-------------5---------5---------5-----------------|

e|-----------------------------------------------------------------|
B|-----------------------------------------------------------------|
G|-3/5-3/2-3/5-3/7-5-5-3-3/5-5-3-3-3/5-3/2-3/5-3/7-5-5-3-3/5-5-3-3-|
D|-3/5-1p0-3/5-1/5-5-3-3-1/3-3-3-1-3/5-1p0-3/5-1/5-5-3-3-1/3-3-3-1-|
A|-----------------------------------------------------------------|
E|-----------------------------------------------------------------|

e|-------------------------|
B|-------------------------|
G|-3-3---------3-3---------|
D|-3-3-4-4-2/4-3-3-4-4-2/4-|
A|-1-1-4-4-2/4-1-1-4-4-2/4-|
E|-----2-2-0-------2-2-0---|

  Verse                            x4
e|-----------------------------------|
B|*---------------------------------*|
G|------------------2-2-2-2----------|
D|--4-4-4-4-4-4-4-4-2-2-2-2-2-2-2-2--|
A|*-4-4-4-4-4-4-4-4-0-0-0-0-2-2-2-2-*|
E|--2-2-2-2-2-2-2-2---------0-0-0-0--|

  Bridge
e|-----------------------------------|
B|*---------------------------------*|
G|-----------------------------------|
D|--4-4-4-4-5-5-5-5-7-7-7-7-5-5-5-5--|
A|*-4-4-4-4-5-5-5-5-7-7-7-7-5-5-5-5-*|
E|--2-2-2-2-3-3-3-3-5-5-5-5-3-3-3-3--|

  Chorus          x2
e|------------------|---------------------------|
B|*-----------------|--------------------------*|
G|--4/5-5/7-7/5-5/4-|-4/5-5/7-7/10-10-10-10-10--|
D|--4/5-5/7-7/5-5/4-|-4/5-5/7-7/10-10-10-10-10--|
A|*-2/3-3/5-5/3-3/2-|-2/3-3/5-5/8--8--8--8--8--*|
E|------------------|---------------------------|

  2nd Bridge
e|-------------------------------------------------------------------------|
B|-------------------------------------------------------------------------|
G|-------------------------------------------------------------------------|
D|-----9/10------9/10------9/10-9/7------9/10------9/10------9/10-9/7-5/3--|
A|---7---------7---------7-------------7---------7---------7---------------|
E|-5---------5---------5-------------5---------5---------5-----------------|

e|---------------------------------------------------------|
B|---------------------------------------------------------|
G|-3/5-3/2-3/5-3/7-5-5-3-3/5-5-3-3-3-3---------3-3---------|
D|-3/5-1p0-3/5-1/5-5-3-3-1/3-3-3-1-3-3-4-4-2/4-3-3-4-4-2/4-|
A|---------------------------------1-1-4-4-2/4-1-1-4-4-2/4-|
E|-------------------------------------2-2-0-------2-2-0---|

Verse

Bridge I

Chorus

Bridge II

  Outro
e|---------------------------|
B|---------------------------|
G|-3-3-3-3-3-3---------------|
D|-3-3-3-3-3-3-4-4-4-4-4-4-2-|
A|-1-1-1-1-1-1-4-4-4-4-4-4-2-|
E|-------------2-2-2-2-2-2-0-|
Tap to rate this tab
 
# A B C D E F G H I J K L M N O P Q R S T U V W X Y Z