Song name
# A B C D E F G H I J K L M N O P Q R S T U V W X Y Z

Misc Unsigned Bands - Acadia - Im Locked In A Room With Someone Who Feels The Same tab

Im Locked In A Room With Someone Who Feels The Same

Intro:

-----------------------------------|
-----------------------------------|
-----------------------------------|
-----------------------------------|
-----8-7-10-7-8-7-----8-7-10-7-8-7-|
-0-0--------------0-0--------------|
 . .              . .

---------------------------------------|
---------------------------------------|
---------------------------------------|
---------------------------------------|
-------8-7-10-7-8-7-------8-7-10-7-8-7-|
-10-10--------------10-10--------------|
 .  .               .  .

-----------------------------------|
-----------------------------------|
-----------------------------------|
-----------------------------------|
-----8-7-10-7-8-7-----8-7-10-7-8-7-|
-8-8--------------8-8--------------|
 . .              . .

------------------------------------------------|
------------------------------------------------|
------------------------------------------------|
------------------------------------------------|  (x2)
-----8-7-10-7-8-7-----8-7-10-7-8-7-8-8-8--7-7-7-|
-0-0--------------0-0--------------8-8-8--7-7-7-|
 . .              . .              . .    . .

Verse 1:

-------------------------------------------------------------|
-------------------------------------------------------------|
-------------------------------------------------------------|
-------------------------------------------------------------|
-0-0-0-0-0-0-0-0-0-0-0-0-10-10-10-10-10-10-10-10-10-10-10-10-|
-0-0-0-0-0-0-0-0-0-0-0-0-10-10-10-10-10-10-10-10-10-10-10-10-|
 . .   . .   . .   . .   .  .     .  .     .  .     .  .

-------------------------------------------------|
-------------------------------------------------|
-------------------------------------------------|
-------------------------------------------------| (x2)
-8-8-8-8-8-8-8-8-8-8-8-8-5-5-5-5-5-5-8-8-8-7-7-7-|
-8-8-8-8-8-8-8-8-8-8-8-8-5-5-5-5-5-5-8-8-8-7-7-7-|
 . .   . .   . .   . .   . .   . .   . .   . .

Chorus:

-------------------------------------------------------------|
-------------------------------------------------------------|
-------------------------------------------------------------|
-------------------------------------------------------------|
-0-0-0-0-0-0-0-0-0-0-0-0-10-10-10-10-10-10-10-10-10-10-10-10-|
-0-0-0-0-0-0-0-0-0-0-0-0-10-10-10-10-10-10-10-10-10-10-10-10-|


-------------------------------------------------|
-------------------------------------------------|
-------------------------------------------------|
-------------------------------------------------| (x2)
-8-8-8-8-8-8-8-8-8-8-8-8-5-5-5-5-5-5-8-8-8-7-7-7-|
-8-8-8-8-8-8-8-8-8-8-8-8-5-5-5-5-5-5-8-8-8-7-7-7-|


(In this part, the 2 guitars play different things)

Verse 2:

(Guitar 1:)

------------------------------------------------------|
------------------------------------------------------|
------------------------------------------------------|
------------------------------------------------------| (x2)
0-0-0-0----0-0-0-0----5-5-5-5----8-8-8-8--10-10-10-10-|
0-0-0-0----0-0-0-0----5-5-5-5----8-8-8-8--10-10-10-10-|
. . .      . . .      . . .      . . .    .  .  .

        ^          ^          ^           ^
(Guitar 2 plays in these spaces)

(Guitar 2:)

------------------|
------------------|
------------------|
------------------| (x8)
-10-8-7-8-7-8-7-5-|
------------------|

(Chorus)

Breakdown:

--------------------------|
-----------------11-11-11-|
-----------------14-14-14-|
--------------------------| (x8)
0-0-0-0----0-0-0----------|
0-0-0-0----0-0-0----------|

(Chorus)

There you have it.

:)
Tap to rate this tab
# A B C D E F G H I J K L M N O P Q R S T U V W X Y Z