Song name
# A B C D E F G H I J K L M N O P Q R S T U V W X Y Z

Misc Unsigned Bands - Rump-le - Bridge For Sale tab

Another Rump-le tab. because their arnt any out their

1-54
e-------------------------------------------------------------------------|
B-------------------------------------------------------------------------|
G----------------------------------------------------------------7-7--6-6-|
D---9--9--9--9--9--9-----7--7--7--7--7--7----9--9--9--9--9--9----7-7--6-6-|
A---9--9--9--9--9--9-----7--7--7--7--7--7----9--9--9--9--9--9----5-5--4-4-|
E---7--7--7--7--7--7-----5--5--5--5--5--5----7--7--7--7--7--7-------------|

speed up
chorus
e-------------------------------------------|
B-------------------------------------------|
G-------------------------------------7---6-|
D---9--9-----7--7--7----9--9--9--9----7---6-|
A---9--9-----7--7--7----9--9--9--9----5---4-|
E---7--7-----5--5--5----7--7--7--7----------|
     " you always tell me lies, you never tell the truth "
Tap to rate this tab
 
# A B C D E F G H I J K L M N O P Q R S T U V W X Y Z