Song name
# A B C D E F G H I J K L M N O P Q R S T U V W X Y Z

Misc Unsigned Bands - Skemata - Penguin tab

Intro

------------------------------------------|
------------------------------------------|
------------------------------------------|
----5-3-2-3-2-3-2-0--5-3-2-3-3-3-3-2-0----|   x2
--3-----------------3---------------------|
------------------------------------------|

Verse
-----
-----
--5--
--5--    (Bass)
--3--
-----

Interlude
------------------------------------------|
------------------------------------------|
------------------------------------------|
----5-3-2-3-2-3-2-0--5-3-2-3-3-3-3-2-0----|   x2
--3-----------------3---------------------|
------------------------------------------|

Verse

-----
-----
--5--
--5--    (Bass)
--3--
-----

Chorus (strumming isnt right figure it out on your own)

------------------------------------------|
------------------------------------------|
--5-5-5-5---------------------------------|
--5-5-5-5--7-7-7-7--3-3-3-3--5-5-5-5------|     x4
--3-3-3-3--7-7-7-7--3-3-3-3--5-5-5-5------|
-----------5-5-5-5--1-1-1-1--3-3-3-3------|

Interlude

------------------------------------------|
------------------------------------------|
------------------------------------------|
----5-3-2-3-2-3-2-0--5-3-2-3-3-3-3-2-0----|   x2
--3-----------------3---------------------|
------------------------------------------|

verse

-----
-----
--5--
--5--    (Bass)
--3--
-----

Outro Pt. 1

-----------------------------------------|
-----------------------------------------|
----5-3-2-3-2-3-2-0--5-3-2-3-3-3-3-2-0---|  x2
-----------------------------------------|
--3-----------------3--------------------|
-----------------------------------------
Outro Pt. 2

------------------------------------------|
------------------------------------------|
------------------------------------------|
----5-3-2-3-2-3-2-0--5-3-2-3-3-3-3-2-0----|   x2
--3-----------------3---------------------|
------------------------------------------|
Tap to rate this tab
 
# A B C D E F G H I J K L M N O P Q R S T U V W X Y Z