Song name
# A B C D E F G H I J K L M N O P Q R S T U V W X Y Z

Misc Unsigned Bands - The Fallen Rejeks - One Way System tab

-------------------------------------------------------------------------------
			     The Fallen Rejeks - One Way System
-------------------------------------------------------------------------------
Tabbed by: TeddyRamone
Email: punxnotdead_oi_oi@hotmail.com

Tuning: Standard

Intro x 8
e|---------------------------------------------------------------------------|
B|---------------------------------------------------------------------------|
G|-------------9-11-9--------------------------------------------------------|
D|--9--9-11-11--------11-7---------------------------------------------------| 
A|---------------------------------------------------------------------------|
E|---------------------------------------------------------------------------|

Verse 1 x 2
e|---------------------------------------------------------------------------|
B|---------------------------------------------------------------------------|
G|-------------------777777777777------------------------777777777777--------|
D|--9999999999999999-777777777777-------9999999999999999-777777777777-99-1111|
A|--9999999999999999-555555555555-77-55-9999999999999999-555555555555-77-9-9-|
E|--7777777777777777--------------------7777777777777777---------------------|

Pre-Chorus x 2
e|---------------------------------------------------------------------------|
B|---------------------------------------------------------------------------|
G|---------------------------------------------------------------------------|
D|--9999999999999999-77777777777777-6666666666666666-77777777777777----------|
A|--9999999999999999-77777777777777-6666666666666666-77777777777777----------|
E|--7777777777777777-55555555555555-4444444444444444-55555555555555----------|
     xxxxxxxxxxxxxx   xxxxxxxxxxxx   xxxxxxxxxxxxxx   xxxxxxxxxxxx

Chorus x 2
e|---------------------------------------------------------------------------|
B|---------------------------------------------------------------------------|
G|-------------------777777777777------------------------777777777777--------|
D|--9999999999999999-777777777777-------9999999999999999-777777777777-99-1111|
A|--9999999999999999-555555555555-77-55-9999999999999999-555555555555-77-9-9-|
E|--7777777777777777--------------------7777777777777777---------------------|

Intro again x 4
e|---------------------------------------------------------------------------|
B|---------------------------------------------------------------------------|
G|-------------9-11-9--------------------------------------------------------|
D|--9--9-11-11--------11-7---------------------------------------------------| 
A|---------------------------------------------------------------------------|
E|---------------------------------------------------------------------------|

Verse 2 x 2
e|---------------------------------------------------------------------------|
B|---------------------------------------------------------------------------|
G|-------------------777777777777------------------------777777777777--------|
D|--9999999999999999-777777777777-------9999999999999999-777777777777-99-1111|
A|--9999999999999999-555555555555-77-55-9999999999999999-555555555555-77-9-9-|
E|--7777777777777777--------------------7777777777777777---------------------|

Pre-Chorus x 2
e|---------------------------------------------------------------------------|
B|---------------------------------------------------------------------------|
G|---------------------------------------------------------------------------|
D|--9999999999999999-77777777777777-6666666666666666-77777777777777----------|
A|--9999999999999999-77777777777777-6666666666666666-77777777777777----------|
E|--7777777777777777-55555555555555-4444444444444444-55555555555555----------|
     xxxxxxxxxxxxxx   xxxxxxxxxxxx   xxxxxxxxxxxxxx   xxxxxxxxxxxx

Chorus x 2
e|---------------------------------------------------------------------------|
B|---------------------------------------------------------------------------|
G|-------------------777777777777------------------------777777777777--------|
D|--9999999999999999-777777777777-------9999999999999999-777777777777-99-1111|
A|--9999999999999999-555555555555-77-55-9999999999999999-555555555555-77-9-9-|
E|--7777777777777777--------------------7777777777777777---------------------|

Solo part 1 (same as intro) x 4
e|---------------------------------------------------------------------------|
B|---------------------------------------------------------------------------|
G|-------------9-11-9--------------------------------------------------------|
D|--9--9-11-11--------11-7---------------------------------------------------| 
A|---------------------------------------------------------------------------|
E|---------------------------------------------------------------------------|

Solo part 2 x 3
e|---------------------------------------------------------------------------|
B|---------------------------------------------------------------------------|
G|---------------12-14-12----------------------------------------------------|
D|--12--12-14-14----------14-10----------------------------------------------| 
A|---------------------------------------------------------------------------|
E|---------------------------------------------------------------------------|

Little filler after playing part 2 solo for the 3rd time
e|---------------------------------------------------------------------------|
B|---------------------------------------------------------------------------|
G|-----------------------12-14\16/14-12--------------------------------------|
D|--12-12--14--12-12--14----------------14-----------------------------------| 
A|---------------------------------------------------------------------------|
E|---------------------------------------------------------------------------|

Pre-Chorus x 2
e|---------------------------------------------------------------------------|
B|---------------------------------------------------------------------------|
G|---------------------------------------------------------------------------|
D|--9999999999999999-77777777777777-6666666666666666-77777777777777----------|
A|--9999999999999999-77777777777777-6666666666666666-77777777777777----------|
E|--7777777777777777-55555555555555-4444444444444444-55555555555555----------|
     xxxxxxxxxxxxxx   xxxxxxxxxxxx   xxxxxxxxxxxxxx   xxxxxxxxxxxx

When playing Pre-chorus for the 2nd time, end like this

Pre-Chorus x 2
e|---------------------------------------------------------------------------|
B|---------------------------------------------------------------------------|
G|---------------------------------------------------------------------------|
D|--9999999999999999-77777777777777-6666666666666666-------------------------|
A|--9999999999999999-77777777777777-6666666666666666-------------------------|
E|--7777777777777777-55555555555555-4444444444444444-------------------------|
     xxxxxxxxxxxxxx   xxxxxxxxxxxx   xxxxxxxxxxxxxx   pick scrape

Chorus x 2
e|---------------------------------------------------------------------------|
B|---------------------------------------------------------------------------|
G|-------------------777777777777------------------------777777777777--------|
D|--9999999999999999-777777777777-------9999999999999999-777777777777-99-1111|
A|--9999999999999999-555555555555-77-55-9999999999999999-555555555555-77-9-9-|
E|--7777777777777777--------------------7777777777777777---------------------|

Outro x 4
e|---------------------------------------------------------------------------|
B|---------------------------------------------------------------------------|
G|-------------9-11-9--------------------------------------------------------|
D|--9--9-11-11--------11-7---------------------------------------------------| 
A|---------------------------------------------------------------------------|
E|---------------------------------------------------------------------------|

On the fourth turn, end like this:
Solo part 1 (same as intro) x 4
e|---------------------------------------------------------------------------|
B|---------------------------------------------------------------------------|
G|-------------9-11-9--------------------------------------------------------|
D|--9--9-11-11--------11-7-9-------------------------------------------------| 
A|-------------------------9-------------------------------------------------|
E|-------------------------7-------------------------------------------------|
                           Let It Ring

| /  slide up
| \  slide down
| h  hammer-on
| p  pull-off
| ~  vibrato
| +  harmonic
| x  Mute note
===============================================================================

Tap to rate this tab
# A B C D E F G H I J K L M N O P Q R S T U V W X Y Z