Song name
# A B C D E F G H I J K L M N O P Q R S T U V W X Y Z

Misc Unsigned Bands - Spanish Class - Dark Sweeties tab

Help us improve GuitareTab! Take a short survey!
Here ya go Mitch
P.M...................................................................X3
e]----------------------|----------------------|----------------------|
B]----------------------|----------------------|----------------------|
G]----------------------|----------------------|----------------------|
D]----------12----------|----------14----------|----------15----------|
A]-12-14-15----15-14-12-|-12-14-15----15-14-12-|-12-14-15----15-14-12-|
E]----------------------|----------------------|----------------------|

e]----------------------------------------12-14-15/17-19-15-14\12/14-15-14-12\10/12-|
B]----------------------------12-14-15-14-------------------------------------------|
G]-------------------12-14-15-------------------------------------------------------|
D]----------12-14-15----------------------------------------------------------------|
A]-12-14-15-------------------------------------------------------------------------|
E]----------------------------------------------------------------------------------|
  (in this part pick fast, and play as many times as you need/want)
e]-12-14-15-17-19-15-14-12-15-14-10-14-15-12-|
B]-------------------------------------------|
G]-------------------------------------------|
D]-------------------------------------------|
A]-------------------------------------------|
E]-------------------------------------------|
Related for Spanish Class - Dark Sweeties tab