Song name
# A B C D E F G H I J K L M N O P Q R S T U V W X Y Z

Misc Unsigned Bands - The City Underneath - Wasting My Time tab

Wasting My Time - The City Underneath
\\\\\\\\\\\\\\\\\\\\\\\\\\\\\\\\\\\\\

Written by: Nik Pankow and Mat Francis
Artist: The City Underneath
Album: Revenge Is Sweeter Than Her Smile
Copyright 2007
www.myspace.com/thecityunderneath
contact: thecityunderneath@hotmail.com

Tuning: Drop C

D-------------------------------------------------------------------------|
A-------------------------------------------------------------------------|
F-------------------------------------------------------------------------|
C---5-5-5-5---5-5-5---5-5-5-5--------4-4-4-4---4-4-4---4-4-4-4------------|
G---5-5-5-5---5-5-5---5-5-5-5--------2-2-2-2---2-2-2---2-2-2-2------------|
C---5-5-5-5---5-5-5---5-5-5-5---------------------------------------------|
        What's the point of waiting?       If we're all just gonna die,

D-------------------------------------------------------------------------|
A-------------------------------------------------------------------------|
F-------------------------------------------------------------------------|
C---2-2-2-2---2-2-2---2-2-2-2--------5-5-5-5---5-5-5---5-5-5-5------------|
G---2-2-2-2---2-2-2---2-2-2-2--------3-3-3-3---3-3-3---3-3-3-3------------|
C---2-2-2-2---2-2-2---2-2-2-2---------------------------------------------|
        Believe me, I                met our makers and it's all a lie.

D-------------------------------------------------------------------------|
A-------------------------------------------------------------------------|
F-------------------------------------------------------------------------|
C---5-5-5-5---5-5-5---5-5-5-5--------4-4-4-4---4-4-4---4-4-4-4------------|
G---5-5-5-5---5-5-5---5-5-5-5--------2-2-2-2---2-2-2---2-2-2-2------------|
C---5-5-5-5---5-5-5---5-5-5-5---------------------------------------------|
            Stand strong be         tough. We can put up a fight

D-------------------------------------------------------------------------|
A-------------------------------------------------------------------------|
F-------------------------------------------------------------------------|
C---2-2-2-2---2-2-2---2-2-2-2--------5-5-5-5---5-5-5---5-5-5-5------------|
G---2-2-2-2---2-2-2---2-2-2-2--------3-3-3-3---3-3-3---3-3-3-3------------|
C---2-2-2-2---2-2-2---2-2-2-2---------------------------------------------|
        We're losing our sight,       and we're fighting to

D-------------------------------------------------------------------------|
A-------------------------------------------------------------------------|
F----------------------------7-5-4--------------------------------7-5-4---|
C-5---5---4---4---2---2---5--------7---5---5---4---4---2---2---5--------7-|
G-5---5---2---2---0---0---3------------5---5---2---2---0---0---3----------|
C-5---5--------------------------------5---5------------------------------|
  Die

D-------------------------------------------------------------------------|
A-------------------------------------------------------------------------|
F-------------------------------------------------------------------------|
C---5-5-5-5---5-5-5---5-5-5-5--------4-4-4-4---4-4-4---4-4-4-4------------|
G---5-5-5-5---5-5-5---5-5-5-5--------2-2-2-2---2-2-2---2-2-2-2------------|
C---5-5-5-5---5-5-5---5-5-5-5---------------------------------------------|
       So keep your                    feet on the ground,

D-------------------------------------------------------------------------|
A-------------------------------------------------------------------------|
F-------------------------------------------------------------------------|
C---7-7-7-7---7-7-7---7-7-7-7--------5-5-5-5---5-5-5---5-5-5-5------------|
G---7-7-7-7---7-7-7---7-7-7-7--------3-3-3-3---3-3-3---3-3-3-3------------|
C---7-7-7-7---7-7-7---7-7-7-7---------------------------------------------|
       and keep your                 head in the air.

D-------------------------------------------------------------------------|
A-------------------------------------------------------------------------|
F-------------------------------------------------------------------------|
C---5-5-5-5---5-5-5---5-5-5-5--------4-4-4-4---4-4-4---4-4-4-4------------|
G---5-5-5-5---5-5-5---5-5-5-5--------2-2-2-2---2-2-2---2-2-2-2------------|
C---5-5-5-5---5-5-5---5-5-5-5---------------------------------------------|
       you'll never                  make me back down

D-------------------------------------------------------------------------|
A-------------------------------------------------------------------------|
F-------------------------------------------------------------------------|
C---7-7-7-7---7-7-7---7-7-7-7--------5-5-5-5---5-5-5---5-5-5-5------------|
G---7-7-7-7---7-7-7---7-7-7-7--------3-3-3-3---3-3-3---3-3-3-3------------|
C---7-7-7-7---7-7-7---7-7-7-7---------------------------------------------|
      cause you can                  not cause me fear

D-------------------------------------------------------------------------|
A-------------------------------------------------------------------------|
F-------------------------------------------------------------------------|
C---5-5-5-5---5-5-5---5-5-5-5--------4-4-4-4---4-4-4---4-4-4-4------------|
G---5-5-5-5---5-5-5---5-5-5-5--------2-2-2-2---2-2-2---2-2-2-2------------|
C---5-5-5-5---5-5-5---5-5-5-5---------------------------------------------|
       So keep your                    feet on the ground,

D-------------------------------------------------------------------------|
A-------------------------------------------------------------------------|
F-------------------------------------------------------------------------|
C---7-7-7-7---7-7-7---7-7-7-7--------5-5-5-5---5-5-5---5-5-5-5------------|
G---7-7-7-7---7-7-7---7-7-7-7--------3-3-3-3---3-3-3---3-3-3-3------------|
C---7-7-7-7---7-7-7---7-7-7-7---------------------------------------------|
       and keep your                 head in the air.

D-------------------------------------------------------------------------|
A-------------------------------------------------------------------------|
F-------------------------------------------------------------------------|
C---5-5-5-5---5-5-5---5-5-5-5--------4-4-4-4---4-4-4---4-4-4-4------------|
G---5-5-5-5---5-5-5---5-5-5-5--------2-2-2-2---2-2-2---2-2-2-2------------|
C---5-5-5-5---5-5-5---5-5-5-5---------------------------------------------|
       you'll never                  make me back down

D-------------------------------------------------------------------------|
A-------------------------------------------------------------------------|
F-------------------------------------------------------------------------|
C---7-7-7-7---7-7-7---7-7-7-7--------5-5-5-5---5-5-5---5-5-5-5------------|
G---7-7-7-7---7-7-7---7-7-7-7--------3-3-3-3---3-3-3---3-3-3-3------------|
C---7-7-7-7---7-7-7---7-7-7-7---------------------------------------------|
      you can                       not cause me fear

D-------------------------------------------------------------------------|
A-------------------------------------------------------------------------|
F-------------------------------------------------------------------------|
C-5--------4----------2-----------5------5-------4-----------2---------5--|
G-5--------2----------2-----------3------5-------2-----------2---------3--|
C-5-------------------2------------------5-------------------2------------|
   another story of a broken down kid, a useless story thats making me sick

D--------------------------------------------------------------------------|
A--------------------------------------------------------------------------|
F--------------------------------------------------------------------------|
C-----5-5-5--5-5-5----4-4-4--4-4-4----2-2-2--2-2-2----5-5-5--5-5-5---------|
G-----5-5-5--5-5-5----2-2-2--2-2-2----2-2-2--2-2-2----3-3-3--3-3-3---------|
C-----5-5-5--5-5-5--------------------2-2-2--2-2-2-------------------------|
 These hardships            wont      leave if you cry and you beg

D--------------------------------------------------------------------------|
A--------------------------------------------------------------------------|
F--------------------------------------------------------------------------|
C-----5-5-5--5-5-5----4-4-4--4-4-4----2-2-2--2-2-2----5-5-5--5-5-5---------|
G-----5-5-5--5-5-5----2-2-2--2-2-2----2-2-2--2-2-2----3-3-3--3-3-3---------|
C-----5-5-5--5-5-5--------------------2-2-2--2-2-2-------------------------|
          So pick yourself off the ground, and stand up on both your legs.

D-------------------------------------------------------------------------|
A-------------------------------------------------------------------------|
F----------------------------7-5-4--------------------------------7-5-4---|
C-5---5---4---4---2---2---5--------7---5---5---4---4---2---2---5--------7-|
G-5---5---2---2---0---0---3------------5---5---2---2---0---0---3----------|
C-5---5--------------------------------5---5------------------------------|

D-------------------------------------------------------------------------|
A-------------------------------------------------------------------------|
F-------------------------------------------------------------------------|
C---5-5-5-5---5-5-5---5-5-5-5--------4-4-4-4---4-4-4---4-4-4-4------------|
G---5-5-5-5---5-5-5---5-5-5-5--------2-2-2-2---2-2-2---2-2-2-2------------|
C---5-5-5-5---5-5-5---5-5-5-5---------------------------------------------|
       So keep your                    feet on the ground,

D-------------------------------------------------------------------------|
A-------------------------------------------------------------------------|
F-------------------------------------------------------------------------|
C---7-7-7-7---7-7-7---7-7-7-7--------5-5-5-5---5-5-5---5-5-5-5------------|
G---7-7-7-7---7-7-7---7-7-7-7--------3-3-3-3---3-3-3---3-3-3-3------------|
C---7-7-7-7---7-7-7---7-7-7-7---------------------------------------------|
       and keep your                 head in the air.

D-------------------------------------------------------------------------|
A-------------------------------------------------------------------------|
F-------------------------------------------------------------------------|
C---5-5-5-5---5-5-5---5-5-5-5--------4-4-4-4---4-4-4---4-4-4-4------------|
G---5-5-5-5---5-5-5---5-5-5-5--------2-2-2-2---2-2-2---2-2-2-2------------|
C---5-5-5-5---5-5-5---5-5-5-5---------------------------------------------|
       you'll never                  make me back down

D-------------------------------------------------------------------------|
A-------------------------------------------------------------------------|
F-------------------------------------------------------------------------|
C---7-7-7-7---7-7-7---7-7-7-7--------5-5-5-5---5-5-5---5-5-5-5------------|
G---7-7-7-7---7-7-7---7-7-7-7--------3-3-3-3---3-3-3---3-3-3-3------------|
C---7-7-7-7---7-7-7---7-7-7-7---------------------------------------------|
      cause you can                  not cause me fear

D-------------------------------------------------------------------------|
A-------------------------------------------------------------------------|
F-------------------------------------------------------------------------|
C---5-5-5-5---5-5-5---5-5-5-5--------4-4-4-4---4-4-4---4-4-4-4------------|
G---5-5-5-5---5-5-5---5-5-5-5--------2-2-2-2---2-2-2---2-2-2-2------------|
C---5-5-5-5---5-5-5---5-5-5-5---------------------------------------------|
       So keep your                    feet on the ground,

D-------------------------------------------------------------------------|
A-------------------------------------------------------------------------|
F-------------------------------------------------------------------------|
C---7-7-7-7---7-7-7---7-7-7-7--------5-5-5-5---5-5-5---5-5-5-5------------|
G---7-7-7-7---7-7-7---7-7-7-7--------3-3-3-3---3-3-3---3-3-3-3------------|
C---7-7-7-7---7-7-7---7-7-7-7---------------------------------------------|
       and keep your                 head in the air.

D-------------------------------------------------------------------------|
A-------------------------------------------------------------------------|
F-------------------------------------------------------------------------|
C---5-5-5-5---5-5-5---5-5-5-5--------4-4-4-4---4-4-4---4-4-4-4------------|
G---5-5-5-5---5-5-5---5-5-5-5--------2-2-2-2---2-2-2---2-2-2-2------------|
C---5-5-5-5---5-5-5---5-5-5-5---------------------------------------------|
       you'll never                  make me back down

D-------------------------------------------------------------------------|
A-------------------------------------------------------------------------|
F-------------------------------------------------------------------------|
C---7-7-7-7---7-7-7---7-7-7-7--------5-5-5-5---5-5-5---5-5-5-5------------|
G---7-7-7-7---7-7-7---7-7-7-7--------3-3-3-3---3-3-3---3-3-3-3------------|
C---7-7-7-7---7-7-7---7-7-7-7---------------------------------------------|
      you can                       not cause me fear

D-------------------------------------------------------------------------|
A-------------------------------------------------------------------------|
F-------------------------------------------------------------------------|
C------5-------------4-------------2--------------5-----------------------|
G------5-------------2-------------2--------------3-----------------------|
C------5---------------------------2--------------------------------------|
          Let's not waste our time, lets attack all at once

D-------------------------------------------------------------------------|
A-------------------------------------------------------------------------|
F-------------------------------------------------------------------------|
C------5-------------4-------------2--------------5-----------------------|
G------5-------------2-------------2--------------3-----------------------|
C------5---------------------------2--------------------------------------|
         Let's attack with our words and not with a punch

D--------------------------------------------------------------------------|
A--------------------------------------------------------------------------|
F--------------------------------------------------------------------------|
C--x-x-5--x--5-------x-x-4--x--4-------x-x-2--x--2-------x-x-5--x--x-------|
G--x-x-5--x--5-------x-x-2--x--2-------x-x-2--x--2-------x-x-3--x--x-------|
C--x-x-5--x--5-------------------------x-x-2--x--2-------------------------|
           These lies you've been fed,     are taking you over.

D--------------------------------------------------------------------------|
A--------------------------------------------------------------------------|
F--------------------------------------------------------------------------|
C--x-x-5--x--5-------x-x-4--x--4-------x-x-2--x--2-------5-5-5-5-5-5-5-5---|
G--x-x-5--x--5-------x-x-2--x--2-------x-x-2--x--2-------3-3-3-3-3-3-3-3---|
C--x-x-5--x--5-------------------------x-x-2--x--2-------------------------|
         Let's not let them win,       they will not take you over.

D-------------------------------------------------------------------------|
A-------------------------------------------------------------------------|
F-------------------------------------------------------------------------|
C---5-5-5-5---5-5-5---5-5-5-5--------4-4-4-4---4-4-4---4-4-4-4------------|
G---5-5-5-5---5-5-5---5-5-5-5--------2-2-2-2---2-2-2---2-2-2-2------------|
C---5-5-5-5---5-5-5---5-5-5-5---------------------------------------------|
       So keep your                    feet on the ground,

D-------------------------------------------------------------------------|
A-------------------------------------------------------------------------|
F-------------------------------------------------------------------------|
C---7-7-7-7---7-7-7---7-7-7-7--------5-5-5-5---5-5-5---5-5-5-5------------|
G---7-7-7-7---7-7-7---7-7-7-7--------3-3-3-3---3-3-3---3-3-3-3------------|
C---7-7-7-7---7-7-7---7-7-7-7---------------------------------------------|
       and keep your                 head in the air.

D-------------------------------------------------------------------------|
A-------------------------------------------------------------------------|
F-------------------------------------------------------------------------|
C---5-5-5-5---5-5-5---5-5-5-5--------4-4-4-4---4-4-4---4-4-4-4------------|
G---5-5-5-5---5-5-5---5-5-5-5--------2-2-2-2---2-2-2---2-2-2-2------------|
C---5-5-5-5---5-5-5---5-5-5-5---------------------------------------------|
       you'll never                  make me back down

D-------------------------------------------------------------------------|
A-------------------------------------------------------------------------|
F-------------------------------------------------------------------------|
C---7-7-7-7---7-7-7---7-7-7-7--------5-5-5-5---5-5-5---5-5-5-5------------|
G---7-7-7-7---7-7-7---7-7-7-7--------3-3-3-3---3-3-3---3-3-3-3------------|
C---7-7-7-7---7-7-7---7-7-7-7---------------------------------------------|
      cause you can                  not cause me fear

D-------------------------------------------------------------------------|
A-------------------------------------------------------------------------|
F-------------------------------------------------------------------------|
C---5-5-5-5---5-5-5---5-5-5-5--------4-4-4-4---4-4-4---4-4-4-4------------|
G---5-5-5-5---5-5-5---5-5-5-5--------2-2-2-2---2-2-2---2-2-2-2------------|
C---5-5-5-5---5-5-5---5-5-5-5---------------------------------------------|
       So keep your                    feet on the ground,

D-------------------------------------------------------------------------|
A-------------------------------------------------------------------------|
F-------------------------------------------------------------------------|
C---7-7-7-7---7-7-7---7-7-7-7--------5-5-5-5---5-5-5---5-5-5-5------------|
G---7-7-7-7---7-7-7---7-7-7-7--------3-3-3-3---3-3-3---3-3-3-3------------|
C---7-7-7-7---7-7-7---7-7-7-7---------------------------------------------|
       and keep your                 head in the air.

D-------------------------------------------------------------------------|
A-------------------------------------------------------------------------|
F-------------------------------------------------------------------------|
C---5-5-5-5---5-5-5---5-5-5-5--------4-4-4-4---4-4-4---4-4-4-4------------|
G---5-5-5-5---5-5-5---5-5-5-5--------2-2-2-2---2-2-2---2-2-2-2------------|
C---5-5-5-5---5-5-5---5-5-5-5---------------------------------------------|
       you'll never                  make me back down

D-------------------------------------------------------------------------|
A-------------------------------------------------------------------------|
F-------------------------------------------------------------------------|
C---7-7-7-7---7-7-7---7-7-7-7--------5-5-5-5---5-5-5---5-5-5-5------------|
G---7-7-7-7---7-7-7---7-7-7-7--------3-3-3-3---3-3-3---3-3-3-3------------|
C---7-7-7-7---7-7-7---7-7-7-7---------------------------------------------|
      you can                       not cause me fear

D-------------------------------------------------------------------------|
A-------------------------------------------------------------------------|
F-------------------------------------------------------------------------|
C---5-5-5-5---5-5-5---5-5-5-5--------4-4-4-4---4-4-4---4-4-4-4------------|
G---5-5-5-5---5-5-5---5-5-5-5--------2-2-2-2---2-2-2---2-2-2-2------------|
C---5-5-5-5---5-5-5---5-5-5-5---------------------------------------------|
       So keep your                    feet on the ground,

D-------------------------------------------------------------------------|
A-------------------------------------------------------------------------|
F-------------------------------------------------------------------------|
C---7-7-7-7---7-7-7---7-7-7-7--------5-5-5-5---5-5-5---5-5-5-5------------|
G---7-7-7-7---7-7-7---7-7-7-7--------3-3-3-3---3-3-3---3-3-3-3------------|
C---7-7-7-7---7-7-7---7-7-7-7---------------------------------------------|
       and keep your                 head in the air.

D-------------------------------------------------------------------------|
A-------------------------------------------------------------------------|
F-------------------------------------------------------------------------|
C---5-5-5-5---5-5-5---5-5-5-5--------4-4-4-4---4-4-4---4-4-4-4------------|
G---5-5-5-5---5-5-5---5-5-5-5--------2-2-2-2---2-2-2---2-2-2-2------------|
C---5-5-5-5---5-5-5---5-5-5-5---------------------------------------------|
       you'll never                  make me back down

D-------------------------------------------------------------------------|
A-------------------------------------------------------------------------|
F-------------------------------------------------------------------------|
C---7-7-7-7---7-7-7---7-7-7-7--------5-5-5-5---5-5-5---5-5-5-5------------|
G---7-7-7-7---7-7-7---7-7-7-7--------3-3-3-3---3-3-3---3-3-3-3------------|
C---7-7-7-7---7-7-7---7-7-7-7---------------------------------------------|
      cause you can                  not cause me fear

D-------------------------------------------------------------------------|
A-------------------------------------------------------------------------|
F-------------------------------------------------------------------------|
C---5-5-5-5---5-5-5---5-5-5-5--------4-4-4-4---4-4-4---4-4-4-4------------|
G---5-5-5-5---5-5-5---5-5-5-5--------2-2-2-2---2-2-2---2-2-2-2------------|
C---5-5-5-5---5-5-5---5-5-5-5---------------------------------------------|
       So keep your                    feet on the ground,

D-------------------------------------------------------------------------|
A-------------------------------------------------------------------------|
F-------------------------------------------------------------------------|
C---7-7-7-7---7-7-7---7-7-7-7--------5-5-5-5---5-5-5---5-5-5-5------------|
G---7-7-7-7---7-7-7---7-7-7-7--------3-3-3-3---3-3-3---3-3-3-3------------|
C---7-7-7-7---7-7-7---7-7-7-7---------------------------------------------|
       and keep your                 head in the air.

D-------------------------------------------------------------------------|
A-------------------------------------------------------------------------|
F-------------------------------------------------------------------------|
C---5-5-5-5---5-5-5---5-5-5-5--------4-4-4-4---4-4-4---4-4-4-4------------|
G---5-5-5-5---5-5-5---5-5-5-5--------2-2-2-2---2-2-2---2-2-2-2------------|
C---5-5-5-5---5-5-5---5-5-5-5---------------------------------------------|
       you'll never                  make me back down

D-------------------------------------------------------------------------|
A-------------------------------------------------------------------------|
F-------------------------------------------------------------------------|
C--x---x---7---x---x---7-------------5-5-5-5-5-5-5-5----------------------|
G--x---x---7---x---x---7-------------5-5-5-5-5-5-5-5----------------------|
C--x---x---7---x---x---7-------------5-5-5-5-5-5-5-5----------------------|
      you can                       not cause me fear

If anybody has any questions, they can contact the band.
nik- shmokino_shaggy@hotmail.com
mat- matthew_francis_3@hotmail.com
band- thecityunderneath@hotmail.com

CHECK OUT OUR MYSPACE!
www.myspace.com/thecityunderneath
Tap to rate this tab
 
# A B C D E F G H I J K L M N O P Q R S T U V W X Y Z