Song name
# A B C D E F G H I J K L M N O P Q R S T U V W X Y Z

Misc Unsigned Bands - Aisle 14 - Live Laugh Love tab

Aisle 14 -|        Live, Laugh, Love
----------|
Tabbed by: Gary Roesser
Email:  gj_91@Hughes.net
100% accurate!!!              (I wrote it)
Tuning:  Standard

e|---------0-----------------------0-----------------------------------------|
B|------1------1--1------------1------1---1----------------------------------|
G|----2---2-----2-----------2----2-----2-------------------------------------|
D|---2---------------------2-------------------------------------------------|
A|-0---------------------0---------------------------------------------------|
E|---------------------------------------------------------------------------|

e|-----------2--------------------2------------------------------------------|
B|--------3----3----3---------3----3----0------------------------------------|
G|-----2----2----2---------2----2----2---------------------------------------|
D|---0--------------------0--------------------------------------------------|
A|-0--------------------0----------------------------------------------------|
E|---------------------------------------------------------------------------|

e|-----------3----------------------3----------------------------------------|
B|--------0----0---0------------0---0----0-----------------------------------|
G|-----------0---0-----------------0---0-------------------------------------|
D|-----0-----------------------0---------------------------------------------|
A|---2-----------------------2-----------------------------------------------|
E|-3----------------------3--------------------------------------------------|

e|---------------------------------------------------------------------------|
B|---------------0-------------------0h1-------------------------------------|
G|--------1-----1--------------1-----1---------------------------------------|
D|------2-----2--------------2-----2-----------------------------------------|
A|----2-----2--------------2-----2-------------------------------------------|
E|-0----------------------0--------------------------------------------------|

play this twice

| /  slide up
| \  slide down
| h  hammer-on
| p  pull-off
| ~  vibrato
| +  harmonic
| x  Mute note
Tap to rate this tab
 
# A B C D E F G H I J K L M N O P Q R S T U V W X Y Z