Song name
# A B C D E F G H I J K L M N O P Q R S T U V W X Y Z

Misc Unsigned Bands - A Midnight Statement - From Anothers Perspective tab

Guitar 1 - Rythem
Guitar 2 - Lead

Guitar 1 Intro Chords

X2
e------------------------|
B------------------------|
G--7--7--7--7------------|
D--7--7--7--7------------|
A--5--5--4--5------------|
D--0--5--4--5------------|

Repeat Intro 2 more times with guitar 2 over it

Guitar 2
X2
e-----------------------------------|
B-----------------8--7-----7--------|
G--9--7--9--7--9--------9-----7-----|
D-----------------------------------|
A-----------------------------------|
D-----------------------------------|

Guitar 1 VERSE chords
palm mute
X2
e----------------------------------|
B----------------------------------|
G----------------------------------|
D--4--5--7--9--4--5--7--7----------|
A--4--5--7--9--4--5--7--7----------|
D--4--5--7--9--4--5--7--7----------|


Guitar 2

Half way through chorus

e--------------------------------------|
B------10---7-8-7-8-7------------------|
G--7-7----7-----------9-7-9-7-9-7------|
D--------------------------------------|
A--------------------------------------|
D--------------------------------------|

Guitar 1

Pre-Chorus

x4 chords

e---------------------|
B---------------------|
G---------------------|
D--5--7--4--5---------|
A--5--7--4--5---------|
D--5--7--4--5---------|

Guitar 2

In between chords Harmonics

Listen for the notes
e------------------------|
B----7-------7-------7---|
G------7---7---7---7-----|
D--------7-------7-------|
A------------------------|
D------------------------|

Guitar 1

Chords x2

e-----------------------------|
B-----------------------------|
G---7--9--11--14--7--9--11----|
D---7--9--11--14--7--9--11----|
A---5--7--9---12--5--7--9-----|
D---5--7--9---12--5--7--9-----|


Guitar 2

x4

e-----------------------------------------------|
B---10---10----8---8---7---7---5---5------------|
G------7----7----7---7---7---7---7---7----------|
D-----------------------------------------------|
A-----------------------------------------------|
D-----------------------------------------------|


The whole song repeats then goes to the bridge


Guitar 1

Chords x 2

e--------------------|
B--------------------|
G--7--9--7--11--9----|
D--x--7--5---9--7----|
A--5--7--5---9--7----|
D-----7--5---9--7----|

Guitar 2

Chords x 2

e-----------------------------------------------------------------|
B-----------------------------------------------------------------|
G---7---9---11---9---11--12---14----18---17---18---17---17--------|
D---x---x---x----x---x---x----x-----x----x----x----x----x---------|
A---5---7---9----7---9---10---12----16---19---16---19---16--------|
D-----------------------------------------------------------------|


solo

Guitar 1 hold this chord for 4 measures

e----------------|
B----------------|
G---7------------|
D---7------------|
A---5------------|
D----------------|


Guitar 2

X 4

e--------------------------------------------|
B---10---10---8---8---7---7---8---8----------|
G------7----7---7---7---7---7---7---7--------|
D--------------------------------------------|
A--------------------------------------------|
D--------------------------------------------|

Repeat intro

this tab is right, i wrote the song
Tap to rate this tab
 
# A B C D E F G H I J K L M N O P Q R S T U V W X Y Z