Song name
# A B C D E F G H I J K L M N O P Q R S T U V W X Y Z

Misc Unsigned Bands - Wild Blue New Mexico - This Sums You Up But You Dont Know Who You Are Yet tab

----------------------------------------------------------------------------
 This Sums You Up But You Don't Know Who You Are Yet - Wild Blue New Mexico
----------------------------------------------------------------------------

Intro: (X2)
e|------------------------------------------------||
B|------------------------------------------------||
G|2-2-2-2-----------------------------------------||
D|2-2-2-2-4p2-------------3-3-3-3-3-3-5-5-5-5-5-5-||
A|0-0-0-0-----3p0-2p0-4p0-3-3-3-3-3-3-5-5-5-5-5-5-||
E|------------------------1-1-1-1-1-1-3-3-3-3-3-3-||

Verse: A F G

Chorus: D(x4) E(x4) A#(x4) C#(x4)

Solo:
e|---------------------------------------------------------------------|
B|5--5--5--5---------8^-8^-8-------------------------------------------|
G|7^-7^-7^-7^--7-5-----------7~-----------------5---5-5---5-7-7^-7^-7--|
D|-----------------7--------------------5---5-7---7-----7- ------------|
A|----------------------------------5h7---7----------------------------|
E|------------------------------5h8------------------------------------|

e|-------||
B|-------||
G|5h7-5--||
D|------7||
A|-------||
E|-------||
Tap to rate this tab
# A B C D E F G H I J K L M N O P Q R S T U V W X Y Z