Song name
# A B C D E F G H I J K L M N O P Q R S T U V W X Y Z

Misc Unsigned Bands - Next Wednesday - Perfect Likeliness Over Heard Until Now tab

This is our only acoustic song...we find liked very much b our fans and we hope we can 
the same about everyone.

      INTRO

    E  A* A  A    E  A* A  A
e|--0--0--0--0----0--0--0--0--|
B|--0--0--0--0----0--0--0--0--|
G|--1--4--8--8----1--4--8--8--|
D|--2--4--7--7----2--4--7--7--|
A|--2--6--7--7----2--6--7--7--|
E|--------5--5----------5--5--|

      VERSE

    E  A* C5#A    E  A* C5#A
e|--0--0--0--0----0--0--0--0--|
B|--0--0--0--0----0--0--0--0--|
G|--1--4--6--8----1--4--6--8--|
D|--2--4--6--7----2--4--6--7--|
A|--2--6--4--7----2--6--4--7--|
E|-----------5-------------5--| x2

      CHORUS

    E  B5 A  A    E  B5 A  A
e|--0--0--0--0----0--0--0--0--|
B|--0--0--0--0----0--0--0--0--|
G|--1--4--8--8----1--4--8--8--|
D|--2--4--7--7----2--4--7--7--|
A|--2--2--7--7----2--2--7--7--|
E|--------5--5----------5--5--| X3

      INTERLUDE

    E  A* A  A    E  A* A  A
e|--0--0--0--0----0--0--0--0--|
B|--0--0--0--0----0--0--0--0--|
G|--1--4--8--8----1--4--8--8--|
D|--2--4--7--7----2--4--7--7--|
A|--2--6--7--7----2--6--7--7--|
E|--------5--5----------5--5--|

      VERSE

    E  A* C5#A    E  A* C5#A    E  A* C5#A
e|--0--0--0--0----0--0--0--0----0--0--0--0--|
B|--0--0--0--0----0--0--0--0----0--0--0--0--|
G|--1--4--6--8----1--4--6--8----1--4--6--8--|
D|--2--4--6--7----2--4--6--7----2--4--6--7--|
A|--2--6--4--7----2--6--4--7----2--6--4--7--|
E|-----------5-------------5-------------5--|

      CHORUS

    E  B5 A  A    E  B5 A  A
e|--0--0--0--0----0--0--0--0--|
B|--0--0--0--0----0--0--0--0--|
G|--1--4--8--8----1--4--8--8--|
D|--2--4--7--7----2--4--7--7--|
A|--2--2--7--7----2--2--7--7--|
E|--------5--5----------5--5--| x6

      OUTRO

e|--0~--0~--0~--0~--|
B|--0~--0~--0~--0~--|
G|--1~--4~--8~--1~--|
D|--2~--4~--7~--2~--|
A|--2~--2~--7~--2~--|
E|----------5~------|
Tap to rate this tab
# A B C D E F G H I J K L M N O P Q R S T U V W X Y Z