Song name
# A B C D E F G H I J K L M N O P Q R S T U V W X Y Z

Misc Unsigned Bands - Vernon West - I Love You Mike Jannino tab

This is a song a kid named Vernon West made for a good friend of his named Mike Jannino. 
probably don't know the kid, but man is he cool.

-Strum Sequences: ^=up, v=down
-Tuning: Standard

Verse 1.
-|----------------------------           -|----------------------3----|
-|--------0h3-----------3-----           -|--------0h3---------3------|
-|-----0-------0-----0-----0--           -|-----0-------0----0--------|
-|--0-------------0-----0----- x3, then  -|--0-------------0----------|
-|----------------------------           -|---------------------------|
-|--3-------------------------           -|--3------------------------|


-|--------0h3-----------3-----           -|--------0h3-----------3----|
-|-----3-------3-----3-----3--           -|-----3-------3----3--------|
-|--0-------------0-----0-----           -|--0-------------0---0------|
-|---------------------------- x3, then  -|---------------------------|
-|--3-------------------------           -|--3------------------------|
-|----------------------------           -|---------------------------|


    Chorus.
    -|--3---3---3--3--3---3--3--3---3---3---3--3--3---3--3--3--|
    -|--3---3---3--3--3---3--3--3---3---3---3--3--3---3--3--3--|
    -|--0---0---0--0--0---0--0--0---0---0---0--0--0---0--0--0--|
    -|--0---0---0--0--0---0--0--0---2---2---2--2--2---2--2--2--|  x6
    -|--2---2---2--2--2---2--2--2---3---3---3--3--3---3--3--3--|
    -|--3---3---3--3--3---3--3--3---0---0---0--0--0---0--0--0--|
strums: v   v   v  ^  v   v  ^  v   v   v   v  ^  v   v  ^  v


    -|------------------------------------------------3----|
    -|--------0h3-----------3-----------0h3---------3------|
    -|-----0-------0-----0-----0-----0-------0----0--------|
    -|--0-------------0-----0-----0-------------0----------|
    -|-----------------------------------------------------|
    -|--3-------------------------3------------------------|

-NOW REPEAT EVERYTHING-

           NOTE: I MAY BE WRONG, BUT WHAT THE HELL
Tap to rate this tab
# A B C D E F G H I J K L M N O P Q R S T U V W X Y Z