Song name
# A B C D E F G H I J K L M N O P Q R S T U V W X Y Z

Misc Unsigned Bands - Harpy Of Flames - Fire Flight tab

Help us improve GuitareTab! Take a short survey!
This is one of the first songs that I wrote when I first started playing. Mostly easy 
Anyway Enjoy!


h - hammer on
p - pull off
\/- slide

Line 1
|--------------------------------------------------------------------------|
|-2h3p2-------2h3p2--------------------------------------------------------|
|------3-2----------3-2----2h3p2-------------------------------------------|
|-------------------------------h3p0-----------4---------4-----------------|
|-------------------------------------2222222h3--222222h3--2/4-------------|
|--------------------------------------------------------------------------|

Line 2
|--------------------------------------------------------------------------|
|--------------------------------------------------------------------------|
|--------------------------------------------------------------------------|
|----------6----------6-----------------9----------9---8\------------------|
|-4444444h5--4444444h5---4/7---7777777h8--7777777h8-------0----------------|
|--------------------------------------------------------------------------|

Line 3
|--------------------------------------------------------------------------|
|--------------------------------------------------------------------------|
|--------------------------------------------------------------------------|
|---10-9-7-5-3-2-3---10-9-7-5-3-2---10-9-7-5-3-2-3---10-9-7-5-3-5----------|
|-00--0-0-0-0-0-0--00--0-0-0-0-0--00--0-0-0-0-0-0--00--0-0-0-0-0-0---------|
|--------------------------------------------------------------------------|

Line 4
|--------------------------------------------------------------------------|
|--------------------------------------------------------------------------|
|8p7h8-8p7h8p7h8/10---8p7h8p7---------8p7h8-8p7h8p7h8/10---8p7h8p7---------|
|----------------------------h8/10-10-----------------------------h8/10-10-|
|--------------------------------------------------------------------------|
Repeat line 3


THERE YOU GO. May Still Be Adding If You Get Interested.
Related for Harpy Of Flames - Fire Flight tab