Song name
# A B C D E F G H I J K L M N O P Q R S T U V W X Y Z

Misc Unsigned Bands - Silence In Shadows - Fear Of The Unknown tab

-----------------------------------------------------------------------------

            Fear Of The Unknown - Silence In Shadows
-----------------------------------------------------------------------------


Tabbed by: Dylan C.
Email: NUNIOR91@aol.com

The Version that is currently on our myspace is in Drop D but the version that will be 
our CD will be in Drop C

Drop D Tuning is

D
A
D
G
B
E

www.myspace.com/silenceinshadowsband

Tuning: Drop C

Part 1: Both Guitars / Play 4 Times

C|--00>----55>----33>--22>---------------------------------------------------|
G|--00>----55>----33>--22>---------------------------------------------------|
C|--00>----55>----33>--22>---------------------------------------------------|
F|---------------------------------------------------------------------------|
A|---------------------------------------------------------------------------|
D|---------------------------------------------------------------------------|


Part 2: First Guitar / Play 1 Time

C|--00---0---0---0---0------------00---0---0---0---0-------------------------|
G|-----5---8---7---10---7h8----------5---8---7---10---7h8--------------------|
C|---------------------------------------------------------------------------|
F|---------------------------------------------------------------------------|
A|---------------------------------------------------------------------------|
D|---------------------------------------------------------------------------|

C|--00---0---0---0---0------------55-555>---33-333>--------------------------|
G|-----5---8---7---10---7h8-------55-555>---33-333>--------------------------|
C|--------------------------------55-555>---33-333>--------------------------|
F|---------------------------------------------------------------------------|
A|---------------------------------------------------------------------------|
D|---------------------------------------------------------------------------|


Part 2: Second Guitar / Play 1 Time

C|--00p---(0)---(0)---(0)---(0)---------00p---(0)---(0)---(0)---(0)----------|
G|-----(5)---(8)---(7)---(10)---(7h8)-------(5)---(8)---(7)---(10)---(7h8)---|
C|---------------------------------------------------------------------------|
F|---------------------------------------------------------------------------|
A|---------------------------------------------------------------------------|
D|---------------------------------------------------------------------------|

C|--00p---(0)---(0)---(0)---(0)-------------55-555>---33-333>----------------|
G|-----(5)---(8)---(7)---(10)---(7h8)-------55-555>---33-333>----------------|
C|------------------------------------------55-555>---33-333>----------------|
F|---------------------------------------------------------------------------|
A|---------------------------------------------------------------------------|
D|---------------------------------------------------------------------------|


Part 3: Both Guitars / Play 3 Times

C|--00---0---0---0---0------------00---0---0---0---0-------------------------|
G|-----5---8---7---10---7h8----------5---8---7---10---7h8--------------------|
C|---------------------------------------------------------------------------|
F|---------------------------------------------------------------------------|
A|---------------------------------------------------------------------------|
D|---------------------------------------------------------------------------|

C|--00---0---0---0---0------------55-555>---33-333>--------------------------|
G|-----5---8---7---10---7h8-------55-555>---33-333>--------------------------|
C|--------------------------------55-555>---33-333>--------------------------|
F|---------------------------------------------------------------------------|
A|---------------------------------------------------------------------------|
D|---------------------------------------------------------------------------|


Part 4: First Guitar / Play 1 Time

C|--00>----------------------------------------------------------------------|
G|--00>----------------1h3---------------------------------------------------|
C|--00>----3o2-0h2-3o2-------------------------------------------------------|
F|---------------------------------------------------------------------------|
A|---------------------------------------------------------------------------|
D|---------------------------------------------------------------------------|


Part 4: Second Guitar / Play 1 Time

C|--00>----------------------------------------------------------------------|
G|--00>----------------(1h3)-------------------------------------------------|
C|--00>----(3o2)-(0h2)-------------------------------------------------------|
F|---------------------------------------------------------------------------|
A|---------------------------------------------------------------------------|
D|---------------------------------------------------------------------------|


Part 5: Both Guitars / Play 4 Times

C|--000p-0>---0----------------000p-0>---0-----------------------------------|
G|--000p-0>------3-1-0--3-1-0--000p-0>-------------5-3-0---------------------|
C|--000p-0>--------------------000p-0>------3-2-0----------------------------|
F|---------------------------------------------------------------------------|
A|---------------------------------------------------------------------------|
D|---------------------------------------------------------------------------|


Part 6: Both Guitar / Play 6 Times

C|--0---0---0-------0-------0---0---0----------------------------------------|
G|------------1-1-1---1h3-------------3>--5>---------------------------------|
C|----3---2-------------------3---2---5>--7>---------------------------------|
F|---------------------------------------------------------------------------|
A|---------------------------------------------------------------------------|
D|---------------------------------------------------------------------------|


Part 7: First Guitar / Play 1 Time

C|--00p-0p-0p-0p-000p----(00p)-(0p)-(0p)-(0p)-(000p)-------------------------|
G|--00p-0p-0p-0p-000p----(00p)-(0p)-(0p)-(0p)-(000p)-------------------------|
C|--00p-0p-0p-0p-000p----(00p)-(0p)-(0p)-(0p)-(000p)-------------------------|
F|---------------------------------------------------------------------------|
A|---------------------------------------------------------------------------|
D|---------------------------------------------------------------------------|


Part 7: Second Guitar / Play 1 Time

C|--(00p)-(0p)-(0p)-(0p)-(000p)----00p-0p-0p-0p-000p-------------------------|
G|--(00p)-(0p)-(0p)-(0p)-(000p)----00p-0p-0p-0p-000p-------------------------|
C|--(00p)-(0p)-(0p)-(0p)-(000p)----00p-0p-0p-0p-000p-------------------------|
F|---------------------------------------------------------------------------|
A|---------------------------------------------------------------------------|
D|---------------------------------------------------------------------------|

Part 8: Both Guitars / Play 4 Times

C|--00p-0p-0p-0p-000p----00p-0p-0p-0p-000p-----------------------------------|
G|--00p-0p-0p-0p-000p----00p-0p-0p-0p-000p-----------------------------------|
C|--00p-0p-0p-0p-000p----00p-0p-0p-0p-000p----0h2h3--0h2h3-------------------|
F|---------------------------------------------------------------------------|
A|---------------------------------------------------------------------------|
D|---------------------------------------------------------------------------|


Enjoy!


| h = hammer on
| > = let note ring out
| () = cues for other guitar so don't play the notes in parentheses
| p = palm mute
| o = pull off
=============================================================================
Tap to rate this tab
 
# A B C D E F G H I J K L M N O P Q R S T U V W X Y Z