Song name
# A B C D E F G H I J K L M N O P Q R S T U V W X Y Z

Misc Unsigned Bands - Bruddha - First Chances tab

This is only one guitar part, the other is chords.

Intro
E|---------------------------------------------------------------------------|
B|-3-3-3-3-3-3-3-3-2-2-2--5-5-5--3-3--3-3-3-3-3-3-3-3-3-3--5-5-5--2-2-2--3-3-|
G|---------------------------------------------------------------------------|
D|---------------------------------------------------------------------------|
A|---------------------------------------------------------------------------|
E|---------------------------------------------------------------------------|

E|--------------------------------------------------------------------------|
B|-3-3-3-3-3-3-3-3--2-2-2--5-5-5--3-3----0-0-0-0-0-0-0-0--2-2-2-2-2-2-2-2---|
G|--------------------------------------------------------------------------|
D|--------------------------------------------------------------------------|
A|--------------------------------------------------------------------------|
E|--------------------------------------------------------------------------|

Verse
E| -------------------------------------------------------------------------|
B| -3-3-3-3-3-3-3-3--2-2-2--5-5-5--3-3---3-3-3-3-3-3-3-3--5-5-5--2-2-2--3-3-|
G| -------------------------------------------------------------------------|
D| -------------------------------------------------------------------------|
A| -------------------------------------------------------------------------|
E| -------------------------------------------------------------------------|

E| --------------------------------------------------------------------------|
B| -3-3-3-3-3-3-3-3--2-2-2--5-5-5--3-3----0-0-0-0-0-0-0-0--2-2-2-2-2-2-2-2---|
G| --------------------------------------------------------------------------|
D| --------------------------------------------------------------------------|
A| --------------------------------------------------------------------------|
E| --------------------------------------------------------------------------|

E| --------------------------------------------------------------------------|
B| -3-3-3-3-3-3-3-3--2-2-2--5-5-5--3-3----3-3-3-3-3-3-3-3--5-5-5--2-2-2--3-3-|
G| --------------------------------------------------------------------------|
D| --------------------------------------------------------------------------|
A| --------------------------------------------------------------------------|
E| --------------------------------------------------------------------------|

E| -------------------------------------------------------------------------|
B| -3-3-3-3-3-3-3-3--2-2-2--5-5-5--3-3----7-7-7-7-7-7-7-7--5-5-5-5-5-5-5-5--|
G| -------------------------------------------------------------------------|
D| -------------------------------------------------------------------------|
A| -------------------------------------------------------------------------|
E| -------------------------------------------------------------------------|

Bridge
E| --------------------------------------------------------------------------|
B| -3-3-3-3-3-3-3-3--2-2-2--5-5-5--3-3----3-3-3-3-3-3-3-3--5-5-5--2-2-2--3-3-|
G| --------------------------------------------------------------------------|
D| --------------------------------------------------------------------------|
A| --------------------------------------------------------------------------|
E| --------------------------------------------------------------------------|

E| --------------------------------------------------------------------------|
B| -3-3-3-3-3-3-3-3-2-2-2-5-5-5-3-3-7-7-7-7-7-7-7-7--10-10-10-10-10-10-10-10-|
G| --------------------------------------------------------------------------|
D| --------------------------------------------------------------------------|
A| --------------------------------------------------------------------------|
E| --------------------------------------------------------------------------|

Chorus
E| --------------------------------------------------------------------------|
B| -3-3-3-7-7-7-2-2-2-5-5--3-3-3-7-7-7--2-2-2--5-5---3-3-3--7-7-7--2-2-2-5-5-|
G| --------------------------------------------------------------------------|
D| --------------------------------------------------------------------------|
A| --------------------------------------------------------------------------|
E| --------------------------------------------------------------------------|

E| -------------------------------------------------------------------------|
B| -12-12-12-12-12-12-12-12--10-10-10-10-10-10-10-10------------------------|
G| -------------------------------------------------------------------------|
D| -------------------------------------------------------------------------|
A| -------------------------------------------------------------------------|
E| -------------------------------------------------------------------------|

Verse
E| --------------------------------------------------------------------------|
B| -3-333-3-333-3-33--2-222--7-777--3-3--3-333-3-333-3-33--7-777--2-222--3-3-|
G| --------------------------------------------------------------------------|
D| --------------------------------------------------------------------------|
A| --------------------------------------------------------------------------|
E| --------------------------------------------------------------------------|

E| -------------------------------------------------------------------------|
B| -3-333-3-333-3-33--2-222--7-777--3-3----7-777-7-777--0--2-222--5-555--3--|
G| -------------------------------------------------------------------------|
D| -------------------------------------------------------------------------|
A| -------------------------------------------------------------------------|
E| -------------------------------------------------------------------------|

E| --------------------------------------------------------------------------|
B| -3-333-3-333-3-33--2-222--7-777--3-3--3-333-3-333-3-33--7-777--2-222--3-3-|
G| --------------------------------------------------------------------------|
D| --------------------------------------------------------------------------|
A| --------------------------------------------------------------------------|
E| --------------------------------------------------------------------------|

E| -------------------------------------------------------------------------|
B| -3-333-3-333-3-33--2-222--7-777--3-3---0-0-0-0-0-0-0-0--7--5-5-5-5-5-5-5-|
G| -------------------------------------------------------------------------|
D| -------------------------------------------------------------------------|
A| -------------------------------------------------------------------------|
E| -------------------------------------------------------------------------|

Chorus
E| --------------------------------------------------------------------------|
B| -3-3-3-7-7-7-2-2-2-5-5--3-3-3-7-7-7--2-2-2--5-5---3-3-3--7-7-7--2-2-2-5-5-|
G| --------------------------------------------------------------------------|
D| --------------------------------------------------------------------------|
A| --------------------------------------------------------------------------|
E| --------------------------------------------------------------------------|

E| -------------------------------------------------------------------------|
B| -12-12-12-12-12-12-12-12--10-10-10-10-10-10-10-10------------------------|
G| -------------------------------------------------------------------------|
D| -------------------------------------------------------------------------|
A| -------------------------------------------------------------------------|
E| -------------------------------------------------------------------------|

Outro
E| --------------------------------------------------------------------------|
B| -3-3-3-3-3-3-3-3--2-2-2--5-5-5--3-3----3-3-3-3-3-3-3-3--5-5-5--2-2-2--3-3-|
G| --------------------------------------------------------------------------|
D| --------------------------------------------------------------------------|
A| --------------------------------------------------------------------------|
E| --------------------------------------------------------------------------|

E| ---------------------------------------------------------------2---------|
B| -3-3-3-3-3-3-3-3--2-2-2--5-5-5--3-3----0-0-0-0-0-0-0-0--2-2-2--3---------|
G| ---------------------------------------------------------------2---------|
D| ---------------------------------------------------------------0---------|
A| ---------------------------------------------------------------x---------|
E| ---------------------------------------------------------------x---------|
Tap to rate this tab
 
# A B C D E F G H I J K L M N O P Q R S T U V W X Y Z