Song name
# A B C D E F G H I J K L M N O P Q R S T U V W X Y Z

Misc Unsigned Bands - Aaz - Akhiyan tab


					   AKHIYAN BY AAZ [The Band]
						 GUITAR TABS

					     TABED BY: RAFAY AHMED


Standard Tuning (E,A,D,G,B,e)


INTRO:-

e ||-------------------|-------------------|-------------------|-------------------|
B ||-------------------|-------------------|-------------------|-------------------|
G ||-------------------|-------------------|-------------------|-------------------|
D ||-----9------9-Slide|-----7-------7-//--|-----5-------5-//--|-----7-------7-//--|     
X  2 Times
A ||-7-7---7-7-7-------|-5-5---5-5-5-------|-3-3---3-3-3-------|-5-5---5-5-5-------|
E ||-------------------|-------------------|-------------------|-------------------|

* ( // means Slide )



VERSE:-

Repeat the intro 4 times during Verse.


LYRICS OF 1st VERSE:-


Akhiyan Milee aur chaien Kho gaya  -|
				    |--->  X  2 Times
Neendain uree jab pyaar hogaya     -|




PRE CHORUS:- (Distorted)

E5       D5
Koi nahi teray siwaa

E5       D5
koi nahi teray siwaa

       C5    D5
jissay apnaa kahaaa                                 (For Chord Dictionary Scroll Down)




CHORUS:- (Alaap) (Distorted Palm Muting)

Now this part is a bit difficult for newbies because you have to do palm muting in it, 
to the song to figure out what
is happening.


PLAY  E5 , D5 , C5 , D5   X   2 Times




2ND VERSE:-

Guitar part is the same as you did in First verse (Clean) but this time play it for just 
Times


LYRICS OF 2nd VERSE:-

Tanha Is dil ko Jab sathi milaa

Ajnabi Dunya mai Koi apna laga



PRE-CHORUS:-

SAme as you did before




CHORUS:-

Same as you did Before



GUITAR SOLO:-

( Play This Solo With Alternate picking )

e ||--------------------------------------------------|
B ||--------------------------------------------------|
G ||-9-9-12-12-11-11-11-------7-7-7-9-9--9--9--9------|      X    2 Times
D ||--------------------------------------------------|
A ||--------------------------------------------------|
E ||--------------------------------------------------|

e ||--------------------------------------------------|
B ||-7-8--8-//-12-12--10-10-10-10---------------------|
G ||--------------------------------------------------|      X    3 times
D ||--------------------------------------------------|
A ||--------------------------------------------------|
E ||--------------------------------------------------|

e ||---------------------|
B ||-7-8-7-8-7-8-7-7-7---|
G ||---------------------|
D ||---------------------|
A ||---------------------|
E ||---------------------|

e ||--------------------------------------------------|
B ||-------8------------------8-----------------------|
G ||---7-9---9-7-7-7------7-9---9-7-7-7---------------|
D ||-9---------------9--9---------------9-------------|
A ||--------------------------------------------------|
E ||--------------------------------------------------|

e ||--------------------------------------------------|
B ||-------8------------------------------------------|
G ||---7-9---9-7-7-7--9-9-//-12-11-11-11-11-----------|
D ||-9------------------------------------------------|
A ||--------------------------------------------------|
E ||--------------------------------------------------|

e ||--------------------------------------------------|
B ||-------8------------------8-----------------------|
G ||---7-9---9-7-7-7------7-9---9-7-7-7---------------|
D ||-9---------------9--9---------------9-------------|
A ||--------------------------------------------------|
E ||--------------------------------------------------|

e ||--------------------------------------------------|
B ||-------8------------------------------------------|
G ||---7-9---9-7-7-7--9-9-//-12-11-B--7-H-9-9---------|
D ||-9------------------------------------------------|
A ||--------------------------------------------------|
E ||--------------------------------------------------|


Note

* // means Slide
* H  means Hammer
* B  means Bend



BRIDGE:-(ALAAP)

Just after solo, there is a ALAAAP. In this part there is no Guitar.




3RD VERSE:-

Same as Played In Second Verse But this time the guitar sound should be Distorted with 
Muting.


LYRICS OF 3RD VERSE:-

Mil kar kabhi phir na hona judaah

Teray hi dum say hai mera jahan




PRE-CHORUS:-

SAme as you did before




CHORUS:-

Same as you did Before



OUTRO:- (Distorted Strumming)

Now in this part 4 power Chords are used E5, G5, F#5, D5.(All of them starting from A string)


PATTERN:- E5--E5--G5--G5--F#5--F#5--F#5--D5--D5--D5--E5--E5--E5--E5--E5  x  3 Times and 
that play C5--E5




|ENDING ALAAP BY VOCALIST|


|CHORD DICTIONARY|


E5 =  e ||-----|
      B ||-----|
      G ||--9--|
      D ||--9--|
      A ||--7--|
      E ||-----|


D5 =  e ||-----|
      B ||-----|
      G ||--7--|
      D ||--7--|
      A ||--5--|
      E ||-----|


C5 =  e ||-----|
      B ||-----|
      G ||--5--|
      D ||--5--|
      A ||--3--|
      E ||-----|


G5 =  e ||-----|
      B ||-----|
      G ||--12-|
      D ||--12-|
      A ||--10-|
      E ||-----|


F#5 = e ||-----|
      B ||-----|
      G ||--11-|
      D ||--11-|
      A ||--9--|
      E ||-----|
Tap to rate this tab
# A B C D E F G H I J K L M N O P Q R S T U V W X Y Z