Song name
# A B C D E F G H I J K L M N O P Q R S T U V W X Y Z

Misc Unsigned Bands - Dubculture - Lovers Music tab

Help us improve GuitareTab! Take a short survey!
intro

e|------------------|
b|------------------|
g|------------------|x2
d|------------------|
a|-0-2-4-4-2-4-5-4-2|
e|------------------|

verse
e|---------------------------------------|
b|---------------------------------------|
g|-x-9-xx-9------------------------------|
d|-x-9-xx-9--x-4-xx-4--x-6-6-x-4-x-4-4---|
a|-x-7-xx-7--x-4-xx-4--x-6-6-x-4-x-4-4---|x10
e|-----------x-2-xx-2--x-4-4-x-2-x-2-2---|

chorus
e|--------------------------------------------------------|
b|--------------------------------------------------------|
g|--------------------------------------------------------|
d|-9-9-9-9-7-7-7-7-9-9-9-9-7-7-7-7-9-9-9-9-7-7-7-7-9-9-9-9|
a|-9-9-9-9-7-7-7-7-9-9-9-9-7-7-7-7-9-9-9-9-5-5-5-5-9-9-9-9|
e|-7-7-7-9-5-5-5-5-7-7-7-7-5-5-5-5-7-7-7-7-5-5-5-5-7-7-7-7|

structue
introx2
versex10
chorusx1
versex10
chorusx1
versex5(strum last 2 chords fast)
Related for Dubculture - Lovers Music tab