Song name
# A B C D E F G H I J K L M N O P Q R S T U V W X Y Z

Misc Unsigned Bands - Eskimo Exam - Haploid tab

Very fast picking
                                                                    Play x5 
e|-------------------------------------------------------------------------|
b|-5-play x4-7-play x4-8-play x4-7-play x4---------------------------------|
g|-------------------------------------------------------------------------|
d|-------------------------------------------------------------------------|
a|-------------------------------------------------------------------------|
E|-------------------------------------------------------------------------|

Normal Picking

e|-7h9p7-Play x10-t12p7h9-Play x10-t13p7h9-Play x10------------------------|
b|-----------------------------------t12p7h9-Play x10-t13p7h9-Play x10-----|
g|-------------------------------------------------------------------------|
d|-------------------------------------------------------------------------|
a|------------------------------------------------------------------//////-|
E|------------------------------------------------------------------/Rake/-|

e|-------------------------------------------------------------------------|
b|-------------------------------------------------------------------------|
g|-------------------------------------------------------------------------|
d|-0-0-5-0-0-7-0-0-8-0-0-7-0-0-5-play-x3--0-0-5-0-0-7-0-0-8-0-0-7-0-0-5b---|
a|-------------------------------------------------------------------------|
E|-------------------------------------------------------------------------|

e|-------------------------------------------------------------------------|
b|-------------------------------------------------------------------------|
g|-------------------------------------------------------------------------|
d|-------------------------------------------------------------------------|
a|-------------------------------------------------------------------------|
E|-x-x-x-x-x-x-x-x-x-x-x-x-0-1-2-3-2-let ring------------------------------|

e|-------------------------------------------------------------------------|
b|-------------------------------------------------------------------------|
g|-------------------------------------------------------------------------|
d|-------------------------------------------------------------------------|
a|---------------------3---------5---------7---------9---------11----------|
E|-2-2-2-2-2-2-2-2-0-0-1-play-x8-3-Play x8-5-Play x8-7-Play x8-9-Play x8---|

e|-------------------------------------------------------------------------|
b|-------------------------------------------------------------------------|
g|-------------------------------------------------------------------------|
d|-------------------------------------------------------------------------|
a|-12---------14-15-14-15-14-15-14-15--------------------------------------|
E|-10-Play x8-12-13-12-13-12-13-12-13-let ring-----------------------------|

Very fast picking
                                                                    Play x6
e|-------------------------------------------------------------------------|
b|-12-Play x4-14-Play x4-12 Play x4-15 Play x4----Let Last note ring-------|
g|-------------------------------------------------------------------------|
d|-------------------------------------------------------------------------|
a|-------------------------------------------------------------------------|
E|-------------------------------------------------------------------------|

e|-------------------------------------------------------------------------|
b|-------------------------------------------------------------------------|
g|-------------------------------------------------------------------------|
d|-0-----------------------------------------------------------------------|
a|-0-----------------------------------------------------------------------|
E|-0-----------------------------------------------------------------------|
Tap to rate this tab
# A B C D E F G H I J K L M N O P Q R S T U V W X Y Z