Song name
# A B C D E F G H I J K L M N O P Q R S T U V W X Y Z

Misc Unsigned Bands - Aisle 14 - Taken tab

--------------------------------------------------------------------------------|
          Taken---------------- Aisle 14----------------------------------------|
--------------------------------------------------------------------------------|
Music Written By Anthony Bonnette and Gary Roesser
Tabbed by: Gary Roesser
Email:gj_91@Hughes.net
!00% Accurate

Tuning: Standard

(intro) acoustic


E|----------3-----------------------3----------------------------------------|
B|----------3-----------------------3----------------------------------------|
G|------0-----0----0------------0----0---0-----------------------------------|
D|----0----------0------------0---------0------------------------------------|
A|--3-----------------------2------------------------------------------------|
E|---------------------------------------------------------------------------|

e|---------3-----------------------3------------------------------------------|
B|---------3-----------------------0------------------------------------------|
G|---------0---0---0-------------0---0---0------------------------------------|
D|------0--------0-------------0--------0-------------------------------------|
A|----2----------------------2------------------------------------------------|
E|--3----------------------3--------------------------------------------------| x2
acoustic plays same diagram strumming the chords after the verses are sung twice… 
takes over the rift for the solo

(Lead plays intro through all verses)

Solo

e|---------------------------------------------------------------------------|
B|---------------------------------------------------------12----------------|
G|----------------------------------------------------12------12-------12----|
D|------------------------------------------------12---------------12--------|
A|--16----16-16—16\15------------15/16---------------------------------------|
E|---------------------16----16----------------------------------------------|

e|---------------------------------------------------------------------------|
B|---------------------------------------------------------------------------|
G|---------------------------------------------------------------------------|
D|--16------16-16----16\15---------------------------------------------------|
A|--------------------------------16---16b-----------------------------------|
E|---------------------------------------------------------------------------|


Lead plays intro for the last time and slows it down for the outro

| / Slide up
| \ Slide down
| H hammer-on
| P pull-off
| ~ Vibrato
| + Harmonic
| X Mute note
=========================================================================
Tap to rate this tab
# A B C D E F G H I J K L M N O P Q R S T U V W X Y Z