Song name
# A B C D E F G H I J K L M N O P Q R S T U V W X Y Z

Misc Unsigned Bands - The Brown Derby And The Swan - Funk tab

--------------------------------------------------------------------
			     Funk - The Brown Derby and the Swan
--------------------------------------------------------------------
Tabbed by:Tony Cavalieri
Email: nuisanceguitar33@aol.com	

Tuning: E A D G B E

e|------------------------------------------------------|
B|------------------------------------------------------|
G|-----7---------7--------7--------7--------------------|
D|-----7---------7--------7--------7--------------------|
A|-----5---------5--------5--------5--------------------|
E|------------------------------------------------------|
           
e|------------------------------------------------------|
B|------------------------------------------------------|
G|-----7-7-7-7-7-7-7-7-9-9-9-9-5-5-5-5------------------|
D|-----7-7-7-7-7-7-7-7-9-9-9-9-5-5-5-5------------------| x 9, on last
A|-----5 5-5-5-5-5-5-5-7-7-7-7-3-3-3-3------------------| one, let ring
E|------------------------------------------------------|
          
e|------------------------------------------------------|
B|------------------------------------------------------|
G|-----------7-7-7-7-7-7-7-7-9-9-9-9-5-5-5-5------------| x4, then x2
D|-----------7-7-7-7-7-7-7-7-9-9-9-9-5-5-5-5------------| but half slower,
A|-----------5 5-5-5-5-5-5-5-7-7-7-7-3-3-3-3------------| then x4 at normal
E|------------------------------------------------------| speed
       
e|----- ------------------------------------------------|
B|------------------------------------------------------|
G|-----------7---7---7-----------------7--7-------------|
D|-----------7---7---7-----------------7--7-------------|
A|-----------5---5---5-----------------5--5-------------|
E|------------------------------------------------------|
                        

=========================================================================
Tap to rate this tab
# A B C D E F G H I J K L M N O P Q R S T U V W X Y Z