Song name
# A B C D E F G H I J K L M N O P Q R S T U V W X Y Z

Misc Unsigned Bands - Despise This God - The Dangers Of Being Alone tab

Band:Despise This God
Song:the Dangers Of Being Alone
Album:Watch them Burn

intro-both Guitars
1------------------------------------|
2------------------------------------|
3------------------------------------|
4-5-5-5-5-7-7-7-7--8-8-8-8-8-8-8-8-8-|
5-3-3-3-3-5-5-5-5--8-8-8-8-8-8-8-8-8-|
6-3-3-3-3-5-5-5-5--8-8-8-8-8-8-8-8-8-|

1------------------------------------|
2------------------------------------|
3------------------------------------|
4-6-6-6-6-8-8-8-8--7-7-7-7-7-7-7-7-7-|
5-4-4-4-4-6-6-6-6--7-7-7-7-7-7-7-7-7-|
6-4-4-4-4-6-6-6-6--7-7-7-7-7-7-7-7-7-|

verse-both guitars
1---------------------|
2---------------------|
3---------------13----|
4-1-1-2--------12--12-|
5-1-1-2-0-0-0-0-------|
6-1-1-2-0-0-0-0-------|
        ......

1--------------------------------------|
2--------------------------------------|
3-5-5-5-5-x-x-x------------------------|
4-5-5-5-5-5-5-5------------------------|
5-5-5-5-5-3-3-3-------5-5-4------7-7-5-|
6---------3-3-3--0-0-0------0-0-0------|
                 .....      .....

1-------------------------------------|
2-------------------------------------|
3-------------------------------------| repeat this part twice
4-------------------------------------|
5-------10-8-7----------10-8-7-5h1210-|
6-000000------00000000----------------|
  ......      ........

pre-chorus(lead)
1-------------------10-|
2-5-6-7--------12-13---|
3-5------10b14---------|
4----------------------|
5----------------------|
6----------------------|

pre-chorus(rhythm)
1-------------------------------|
2-------------------------------|
3-------------------------------|
4--6-8---6-10-3-3-3-3-3-5-5-5-5-|
5-------------------------------|
6-00---00-----3-3-3-3-3-5-5-5-5-|
  ..   ..

chorus(both guitars)
1------------------------------------------|
2------------------------------------------|
3-------------------------------6----------|
4-9-9-9-9-5-5-7-7-8-8-8-8-------6-14-14-14-|
5-7-7-7-7-5-5-5-5-8-8-8-8-5-5-5---10-10-10-|
6-----------------8-8-8-8-3-3-3---12-12-12-|

solo
1------14------------20-12---15-16-13---------|
2-13-12--12-14h----14----17-14-------9-----17-|
3--------------16-18------------------11-15---|
4--------------------------------------13-----|
5---------------------------------------------|
6---------------------------------------------|

1-17t14h15p17t14h15p------17b-17-16-16-14-|
2--------------------16-18----------------|
3-----------------------------------------|
4-----------------------------------------|
5-----------------------------------------|
6-----------------------------------------|
during solo rhythm is playing the intro

breakdown(both guitars)
1---------------------------------------|
2---------------------------------------|
3---------------------------------------|
4-------7-5-----7-5-----7-5-------------|
5-------5-3-----5-3-----5-3-------------|
6-00000----00000---00000----00000000000-|
  .....    .....   .....    ...........

1---------------|
2---------------|
3---------------|
4-8-x-8-7-7-3-0-|
5-8-6-6-7-7-5-0-|
6-8-8-6-5-7-3-0-|

solo
1---------------17---------------------22-14-15-|
2--------------12--13--------------20-21--------|
3------19-13--15----14---------18-17------------|
4-----8----14---------8-------14----------------|
5---15-----------------10-12-13-----------------|
6-14--------------------------------------------|

1------14-15-----------18-19-----------20-13------------------------|
2-----11---12---------13---17---------13---11-----------------15-13-|
3----13-----11-------12-----18-------17-----15---------------16-----|
4---13-------14-----10-------16-----17-------12-----10-12-12--------|
5--12---------14---12---------20---13---------15---9----------------|
6-10-----------14-16-----------15-14-----------14-16----------------|

1-16161616161616161616161616161616161616-14-15----|
2---------------------------------------------16b-|
3-------------------------------------------------|
4-------------------------------------------------|
5-------------------------------------------------|
6-------------------------------------------------|

switch off dual
1----------18*-------11-12----------|
2---12s14----19-17--9h----14-14--12-|
3-12-----16b------15-----------16---|
4-----------------------------------|
5-----------------------------------|
6-----------------------------------|

switch
1------------------------------------------------------------|
2---------18181818181818181818181818161616161616161616161616-|
3-7-3-7-3----------------------------------------------------|
4------------------------------------------------------------|
5------------------------------------------------------------|
6------------------------------------------------------------|

1-202020202020202020202020202020202020201818181818181816161616
2-------------------------------------------------------------|
3-------------------------------------------------------------|
4-------------------------------------------------------------|
5-------------------------------------------------------------|
6-------------------------------------------------------------|

1------------16-------------------13-14-11--15-|
2--------------20----------------12-------12---|
3----------5-------------------14--------------|
4-------14-------------------------------------|
5---17-15----------17-20---21-15---------------|
6-18--------------18-19--16--------------------|

both guitars
1------17-18-21-15151515151515151515-----|
2-----20-----------------------------10b-|
3----16----------------------------------|
4---13-----------------------------------|
5--12------------------------------------|
6-12-------------------------------------|

outro(both guitars)
1-------------|
2-------------|
3-------------|
4-6-6-8-5-5-2-|
5-6-6-8-5-5-0-|
6-6-6-8-3-3-2-|

Order of song
intro
verse1
pre chorus
verse2
chorus
verse3
pre chorus
chorus
solo
breakdown
chorus
solo
outro
Tap to rate this tab
# A B C D E F G H I J K L M N O P Q R S T U V W X Y Z