Song name
# A B C D E F G H I J K L M N O P Q R S T U V W X Y Z

Misc Unsigned Bands - Sorry For The Silence - The Daughter tab

The Daughter written by Sorry For The Silence, Tabbed by Michael Muccioli (Guitarist of 
For The Silence)

   [Hold out Chords]
E|----------------------|
B|--7---------7---------|
G|--10--------10--------|[x4]
D|----------------------|
A|----------------------|
D|----------------------|
        [Strum]
E|----------------------|
B|--7-7-7-7-7-7-7-7-----|
G|--1010101010101010----|[x3]
D|----------------------|
A|----------------------|
D|-------------------00-|
   On last Slide to
E|----------------------|
B|-/111111111111111111--|
G|-/141414141414141414--|
D|----------------------|
A|----------------------|
D|----------------------|

E|-----------------------------|----------------|
B|------------7-7-7-7-7-7-7-7--|-11111111111111-|
G|------------1010101010101010-|-14141414141414-|[4x]
D|-----------------------------|----------------|
A|--000-00000------------------|----------------|
D|--000-00000------------------|----------------|
  [-000- = Triplet]          [On last time only for both]
E|-----------------------------|----------------|
B|-----------7-7-7-7-7-7-7-7---|-11111111111111-|
G|-----------1010101010101010--|-14141414141414-|[4x]
D|-----------------------------|----------------|
A|--00000000-------------------|----------------|
D|--00000000-------------------|----------------|
                                  [On last time only]
E|--------------------------------|----------------|
B|---------------------1111111111-|----------------|
G|--101010101010101010-1414141414-|-10101010101010-|[x8]
D|--8-8-8-8-8-8-0-0-0-------------|-8-8-8-8-8-8-0--|
A|--8-8-8-8-8-8-0-0-0-------------|-8-8-8-8-8-8-0--|
D|--8-8-8-8-8-8-0-0-0-------------|-8-8-8-8-8-8-0--|
    [Pitch harmonic, Squeal thingy ~]
E|------------------------------------|
B|------------------------------------|
G|------------------------------------|[x2]
D|------------------------------------|
A|--0---00---0---00---0---00---0------|
D|--0---00---0---00---0---00---0---3~-|
     "She was so young"   [Open hold]
E|---------------------------|---|
B|--------5(b)--------10/9---|---|
G|---------------------------|---|[x12]
D|--------3(b)--------8-/7-8-|-0-|
A|--0------------00-00-----8-|-0-|
D|--0------------00-00-----8-|-0-|

E|-----------------|
B|--7777777--C--CC-|
G|-----------L--LL-|[x8]
D|--5555555--A--AA-|
A|-----------P--PP-|
D|-----------------|
[Just strum them and then hold on last beat]
E|-------------------------------------------|
B|--7777777777777777777777777777777777777777-|
G|-------------------------------------------|[x1]
D|--5555555555555555555555555555555555555555-|
A|-------------------------------------------|
D|-------------------------------------------|

E|-----------------------------|----------------|
B|------------7-7-7-7-7-7-7-7--|-11111111111111-|
G|------------1010101010101010-|-14141414141414-|[4x]
D|-----------------------------|----------------|
A|--000-00000------------------|----------------|
D|--000-00000------------------|----------------|
                               [On last time only]
 "Drink up love, Fill your Lungs"
E|-----------------------------|
B|-----------------------------|
G|-----------------------------|[4x]
D|-----------------------------|
A|--000-00000------------------|
D|--000-00000------------------|

          "Wheres The Party?"
E|------------------------------------------------|------|
B|------7-7-------7-7-------7-7---/11111111111111-|------|
G|------1010------1010------1010--/14141414141414-|------|[4x]
D|------------------------------------------------|------|
A|--0-00------0-00------0-00----------------------|-0~~~-|
D|--0-00------0-00------0-00----------------------|-0!~~-|

I Tabbed out these songs according to what i play when we perform, These are my Guitar 
not Chris's Guitar Parts, but we do share some parts....
www.myspace.com/sorryforthesilence  [Sorry For The Silence Myspace]
www.myspace.com/michaelandrewband   [My personal Music Myspace]
Tap to rate this tab
# A B C D E F G H I J K L M N O P Q R S T U V W X Y Z