Song name
# A B C D E F G H I J K L M N O P Q R S T U V W X Y Z

Misc Unsigned Bands - Lesser Earless - Tp tab

The song T.P. by Iowa's very own Lesser Earless. The tunning is surprisingly in my 
tunning, C-G-C-F-A-D. The band isn't very well known, but from what I know they're on their 
to the top.

-------------------------------------------|
-------------------------------------------|
-------------------------------------------|
-0-0-0-0-4-4~---0-0-0-0-4-4-5~-------------|
-0-0-0-0-4-4~---0-0-0-0-4-4-5~-------------|
-0-0-0-0-4-4~---0-0-0-0-4-4-5~-------------|


-------------------------------------------|
-------------------------------------------|
-------------------------------------------|
-0-0-0-0-4-4~--0-0-0-0-0-0-0-0-0-0-0-------|
-0-0-0-0-4-4~--0-0-0-0-0-0-0-0-0-0-0-------|
-0-0-0-0-4-4~--0-0-0-0-0-0-0-0-0-0-0-------|

-------------------------------------------|
-------------------------------------------|
-7-7-7-7-7-7-11-11-11-11-11-11\------------|
-x-x-x-x-x-x--x--x--x--x--x--x\------------|
-5-5-5-5-5-5--9--9--9--9--9--9\------------|
-------------------------------------------|


-------------------------------------------|
-------------------------------------------|
-7-7-7-7-7-7/14-14-14-14-14-14\------------|
-x-x-x-x-x-x/-x--x--x--x--x--x\------------|
-5-5-5-5-5-5/12-12-12-12-12-12\------------|
-------------------------------------------|


-------------------------------------------|
-------------------------------------------|
-11-11-11-11-11-11\6-6-6-6-6-6-6-----------|
--x--x--x--x--x--x\x-x-x-x-x-x-x-----------|
--9--9--9--9--9--9\4-4-4-4-4-4-4-----------|
-------------------------------------------|


-------------------------------------------|
-------------------------------------------|
-6/7-7-7-7-7-7-7-7-7-7---------------------|
-x/x-x-x-x-x-x-x-x-x-x---------------------|
-4/5-5-5-5-5-5-5-5-5-5---------------------|
-------------------------------------------|

-------------------------------------------|
-------------------------------------------|
-------------------------------------------|
-------------------------------------------|
-------------------------------------------|
-0-0-0-0-4-4-4-4-4-4-4-4-------------------|[x3]
 . . . . . . . . . . . .

-------------------------------------------|
-------------------------------------------|
-------------------------------------------|
-------------------------------------------|
-------------------------------------------|
-0-0-0-0-0-0-0-0-0-0-0-0-------------------|
 . . . . . . . . . . . .

---------------------------------------------|
---------------------------------------------|
-11-11-11-11~--12-12-12-12\11~-12-11-7-7-7-7-|
--x--x--x--x~---x--x--x--x\-x~--x--x-x-x-x-x-|
--9--9--9--9~--10-10-10-10\-9~-10--9-5-5-5-5-|
---------------------------------------------|[x3]

This is played behind the quiet part("I can't wait..."):

-------------------------15p14--14~--------|
---14~---14-------14~--14-----15-----------|
-14----14--14~--14---14--------------------|
-------------------------------------------|
-------------------------------------------|
-------------------------------------------|

"Down!"
-------------------------------------------|
-------------------------------------------|
-------------------------------------------|
-------------------------------------------|
-------------------------------------------|
-1-0-0-0-1-0-0-0-1-0-0-0-------------------|
 . . . . . . . . . . . .

---------------------------------------------------------|
---------------------------------------------------------|
---------------------------------------------------------|
---------------------------------------------------------|
-6-5-5-8-6-5-0-h4h5-8p6-5-0h3-0-0-0-h1-0-0-0h3h5-0h3h5-0-|
---------------------------------------------------------|

"Won't you come..."
-------------------------------------------|
-------------------------------------------|
-------------------------------------------|
-0-2-3~-0-0-2-3~-1-1-1~--1-1-1~-------0----|
-0-2-3~-0-0-2-3~-1-1-1~--1-1-1~-------0----|
-0-2-3~-0-0-2-3~-1-1-1~--1-1-1~-[x2]--0----|


-------------------------------------------|
-------------------------------------------|
-10~-12~-10\-------------------------------|
-------------12-12-12-12h13-12-12-12-12h13-|
-------------------------------------------|
-------------------------------------------|


-------------------------------------------|
-------------------------------------------|
-10~-10-10-10-10-10b12-9b10----------------|
-------------------------------------------|
-------------------------------------------|
-------------------------------------------|


-------------------------------------------|
-------------------------------------------|
-------------------------------------------|
-12-12-12-12-12/13-12-12-12-12/13-12-------|
-------------------------------------------|
-------------------------------------------|

"I can't do this..."
-------------------------------------------|
-------------------------------------------|
-------------------------------------------|
-------------------------------------------|
-6-5-5-------------------------------------|
-------------------------------------------|


Do that 4 times then guitar 1 answers:


-------------------------------------------|
-------------------------------------------|
-------------------------------------------|
-------------------------------------------|
-0h3h5-5-0h3h5-5---------------------------|
-------------------------------------------|


-------------------------------------------|
-------------------------------------------|
-------------------------------------------|
-6p5-5-8p6-6-5h6p5-h6p5--------------------|
-------------------------------------------|
-------------------------------------------|


Outro:
-------------------------------------------|
-------------------------------------------|
-------------------------------------------|
4-3-1-1------------------------------------|
4-3-1-1------------------------------------|
4-3-1-1------------------------------------|

-------------------------------------------|
-------------------------------------------|
-------------------------------------------|
-0-0-0-0-4-4~---0-0-0-0-4-4-5~-------------|
-0-0-0-0-4-4~---0-0-0-0-4-4-5~-------------|
-0-0-0-0-4-4~---0-0-0-0-4-4-5~-------------|


-------------------------------------------|
-------------------------------------------|
-------------------------------------------|
-0-0-0-0-4-4~--0-0-0-0-0-0-0---------------|
-0-0-0-0-4-4~--0-0-0-0-0-0-0---------------|
-0-0-0-0-4-4~--0-0-0-0-0-0-0---------------|

---------------------------------------------|
---------------------------------------------|
-11-11-11-11~--12-12-12-12\11~-12-11-7-7-7-7-|
--x--x--x--x~---x--x--x--x\-x~--x--x-x-x-x-x-|
--9--9--9--9~--10-10-10-10\-9~-10--9-5-5-5-5-|
---------------------------------------------|[x3]

And that is basically the song. I know it isn't well know but I had fun tabbing it. Many 
words were exchanged between me and... me. But it was a lot harder than I though it 
be.

See you at the show,
~analog
Tap to rate this tab
# A B C D E F G H I J K L M N O P Q R S T U V W X Y Z