Song name
# A B C D E F G H I J K L M N O P Q R S T U V W X Y Z

Misc Unsigned Bands - Despise This God - Rising Tide Of Oblivion tab

intro
1-------------------------------------------|
2-------------------------------------------|
3-------------------------------------------|
4-------------------------------------------|
5-0-8-7-8-5---8-7-8-3---8-7-10-8-7-8h7p-----|
6-0---------0---------0-----------------8-5-|
            .         .
1-----------------------------------------------------|
2-----------------------------------------------------|
3-----------------------------------------------------|
4-----------------------------------x7-x9-x7-x5-x4-x5-|
5--8-7-8-5---8-7-8-3----------x7-x9-------------------|
6-0--------0--------0000000000------------------------|
  .        .        ..........      repeat 2x

 verse
1----------------------------------------|
2----------------------------------------|
3----------------------------------------|
4----------------------------------------|
5---8-7-8-5--8-7-8-3--8-7-10-8-7-8h7p----|
6-0---------0-------0----------------8-5-| repeat 3x
  .         .       .
1--------------------------------------------------|
2--------------------------------------------------|
3--------------------------------------------------|
4--------------------------------x7-x9-x7-x5-x4-x5-|
5--8-7-8-5--8-7-8-3--------x7-x9-------------------|
6-0--------0-------00000000------------------------|
  .        .       ........
chorus
1-----------------------------------------------|
2-----------------------------------------------|
3-----------------------------------------------|
4-7-----------7-----------5---------3-----------|
5-7-10-9-10-9-7-10-9-10-9-5-8-7-8-7-3-6-5-6-5-3-|
6-----------------------------------------------|

1---------------------------------------------------|
2---------------------------------------------------|
3---------------------------------------------------|
4-7-----------7-----------7-7-7-7-7-7-7-8-8-7-7-6-6-|
5-7-10-9-10-9-7-10-9-10-9-5-5-5-5-5-5-5-5-5-5-5-4-4-|
6---------------------------------------------------|

bridge
1---------------------------------------------------------------------------|
2---------------------------------------------------------------------------|
3---------------------------------------------------------------------------|
4------x5-x7-----x5x7----x5x7-----8-7------x5-x7-----x5-x7-----x5-x7------5-|
5-x5-x7-----x5-x7----x5x7----x5x7-6-5-x5-x7-----x5-x7-----x5-x7-----x5-x7-3-|
6---------------------------------------------------------------------------|
 repeat 8x

riffd
1-----------------------------------------------------------------|
2-----------------------------------------------------------------|
3-----------------------------------------------12-10-9-7-9-7-5-4-|
4------x5-x7-----x7-x9------x9-x11-------x10-x12------------------|
5-x5-x7-----x7-x9-----x9-x11------x10-x12-------------------------|
6-----------------------------------------------------------------|
 repeat 4x

solo
1
2-9-7-5-7-5-4-5------------10-10-10--8-7-8-|
3--------------5-5-5-5-7-8-----------------|
4------------------------------------------|
5------------------------------------------|
6------------------------------------------|

1-13-14--------------king-|
2------13-14-------ic-----|
3-----------s--ep-p-------|
4------------we-----------|
5-------------------------|
6-------------------------|

1--------------------------------|
2-15-18p15-18p15-18p-------------|
3--------------------19-17-15-17-|
4--------------------------------|
5--------------------------------|
6--------------------------------|

riffE
1------------------------------------------|
2------------------------------------------|
3------------------------------------------|
4--6-7-9-7-6-6-7-9-7-6-6-7-9-7-6-6-7-9-7-6-|
5-9---------7---------5---------7----------|
6------------------------------------------|

intro
verse
chorus
verse2
chorus
bridge
riffD
solo
intro riff
riffE
chorus
main riff
Tap to rate this tab
# A B C D E F G H I J K L M N O P Q R S T U V W X Y Z