Song name
# A B C D E F G H I J K L M N O P Q R S T U V W X Y Z

Misc Unsigned Bands - Forget Sunset - The Light tab

This is a good song by a really unknown but great band.  They're great so if you see 
tab check em out! (ill write the chord names for you)

         G                  D                  EG                 CG
e-3-3-3-x-3-3-3-3-3--2-2-2-x-2-2-2-2-2--3-3-3-x-3-3-3-3-3--3-3-3-x-3-3-3-3-|
b-3-3-3-x-0-0-0-3-3--3-3-3-x-0-0-0-3-3--3-3-3-x-0-0-0-3-3--3-3-3-x-0-0-0-3-|
g-0-0-0-x-0-0-0-0-0--2-2-2-x-2-2-2-2-2--0-0-0-x-0-0-0-0-0--0-0-0-x-0-0-0-0-|
d-0-0-0-x-0-0-0-0-0--0-0-0-x-0-0-0-0-0--2-2-2-x-2-2-2-2-2--2-2-2-x-2-2-2-2-|
a-2-2-2-x-2-2-2-2-2--0-0-0-x-0-0-0-0-0--2-2-2-x-2-2-2-2-2--3-3-3-x-3-3-3-3-|
E-3-3-3-x-3-3-3-3-3--0-0-0-x-0-0-0-0-0--x-x-x-x-x-x-x-x-x--x-x-x-x-x-x-x-x-|


That riff repeats throughout the whole song but at one point In the song you play the G 
pattern, then the D chord pattern, Then the EG chord pattern and strum the Cg chord 
then go back to the same riff you started with.

The lead guitarist plays leads that go with this strumming pattern. The go as follows 
the entire song...

e---------------------------------------------------|
b---------------------------------------------------|
g---0-2-4-2-0----0-2-4-2-0----0-2-4-2-0-5-4-2-4-2-0-|
d-4------------4------------4-----------------------|
a---------------------------------------------------|
E---------------------------------------------------|

And there you go! If you know some basic chords and have experience with switching them 
this should be easy. In timing the lead guitar notes are 8th notes if your having 
putting the lead to the rhythm. Good Luck!

Http://www.myspace.com/forgetsunset
Tap to rate this tab
 
# A B C D E F G H I J K L M N O P Q R S T U V W X Y Z